Motivation

Sum 41

Composição: Deryck Whibley / Greig Nori
tabbed by El Leggio

Intro
G-----------------------------------------------------------
D-----------------------------------------------------------
A-----------------------------------------------------------
E-00---00---00---00---0/12----------------------------------

-------------------------------------------------------¦
-------------------------------------------------------¦
-------------------------------------------------------¦(x2)
-000-45-54-000-45-54-000-45-54-777-45-54---------------¦

Verse (What's the difference....)
-------------------------------------------------------¦
-------------------------------------------------------¦
---------------0000------------------------------------¦(x3)
---0000--4444--------7777------------------------------¦

-------------------------------------------------------¦
-------------------------------------------------------¦
---------------0--2--4--6------------------------------¦
---0000--4444------------------------------------------¦

--------------------------------------------------------¦
--------------------------------------------------------¦
---777777777-----------777777777------------------------¦
-------------777777057-----------5555-7777--5~-5--7777--¦

InTro

Verse

Chorus

BrEaK  (Nothing's New.....)
-------------------------------------------------------¦
-------------------------------------------------------¦
----------2222---00000000------------------------------¦(x3)
---0000------------------------------------------------¦

(No Matter what you say.....)
-------------------------------------------------------¦
-------------------------------------------------------¦
-------------------------------------------------------¦
---222222222--55555555----00---------------------------¦

Pause for a sec. Braketed notes optional
-------------------------------------------------------¦
-------------------------------------------------------¦
-------(5420)------(000--222)--------------------------¦x2
---0-0---------4-0-------------------------------------¦

(Can't Depend.....)
-------------------------------------------------------¦
-------------------------------------------------------¦
--4444444444444444---2222222222222222(22)--------------¦
-------------------------------------------------------¦

-------------------------------------------------------¦
---22222222--------------------------------------------¦
------------22222222-00000000-22222222222222-----------¦
-------------------------------------------------------¦

Ending (Wait coz there is a rest 4 about 5-6 beats then come in)
-----------9-----11--9---9-------14--13--11------------¦
------9h11-------------9-------------------------------¦
-------------------------------------------------------¦
-------------------------------------------------------¦
---9--11---9---9------/14--13--11----------------------¦
-------------9-----------------------------------------¦
-------------------------------------------------------¦
-------------------------------------------------------¦

-------------------------------------------------------¦
-------------------------------------------------------¦
--------2222-------0000--------------------------------¦x4
---0000-------2222-------------------------------------¦

Intro

End on E

Thats my first complete bass tab i hope it's ok it took me a while.
Página 1 / 1

Letras e título
Acordes e artista

resetar configurações
OK