Cifra Club

Open Your Eyes

Sum 41

Tab de baixo: Principal
DROP-D TUNING (DADG)

Intro X2:
G|-------------------|
D|-------------------|
A|------4-4----------|
D|-3-3------6-6--1-1-|

Verse:
G|------------------------------------------------------------------------|
D|------------------------------------------------------------------------|
A|-------------------4444444444444444-------------------------------------|
D|-3333333333333333--------------------6666666666666666--1111111111111111-|

G|------------------------------------------------------------------------|
D|------------------------------------------------------------------------|
A|-------------------4444444444444444--------------------6666666666666666-|
D|-3333333333333333--------------------6666666666666666-------------------|

Chorus X2:
G|------------------------------------------|
D|------------------------------------------|
A|-----------88888888------------6644444444-|
D|-33333333------------66666666-------------|

G|--------------------------------------|
D|-----------66665555-------------------|
A|---------------------6666666666666666-|
D|-66666666-----------------------------|

Verse

Chorus X2

Bridge:
G|----------------------------------------|
D|----------------------------------------|
A|------4-4-------4-4-------4-4-------4-4-|
D|-3-3-------3-3-------3-3-------3-3------|

2x durante o solo:
G|--------------------------------------------------------------------------|
D|------------------------------------------------66665555------------------|
A|-----------88886666----------66664444--------------------6666666666666666-|
D|-33333333------------666666------------66666666---------------------------|

Chorus X2

Terminar em:
G|-----|
D|-----|
A|--6--|
D|-----|
exibições 162
Composição: Sum 41 Colaboração e revisão:
  • Otávio DP

0 comentários

mostrar mais comentários

Conseguiu tocar?

0 tocaram 0 ainda não

Grave um vídeo tocando Open Your Eyes e mande pra gente!

00:00 / 00:00
outros vídeos desta música
repetir qualidade Automático
Outros vídeos desta música
00:00 / 00:00
Automático
OK