Cifra Club

Take A Look At Yourself

Sum 41

Tab de baixo: Principal
Pretty easy song and im pretty sure this tab is correct, the only note im unsure of is 
G#/A flat in the intro.


Intro

------------------------------|
------------------------------|
-777----------444-----66------|
-----44--77-------55----------|  x2

-------------------------------------|
-------------------------------------|
-------22-2--4-444--0000--22222222---|
-0000--------------------------------|  x2

Verse 0:20

-----------------------------------------------------------|
-----------------------------------------------------------|
----------22222222--44444444--00000000-0000------22222222--|
-00000000-----------------------------------0000-----------|

-----------------------------------------------------------|
-----------------------------------------------------------|
-7777--6666--4444--0000--7777--6666--4444--0000------------|
-----------------------------------------------------------|

Pre-Chorus 0:40

--------------------------------|
--------------------------------|
-44444--00000---------22222-----|
---------------00000------------|  x2

-------------------------------|
-------------------------------|
-00000000--22222222------------|
-------------------------------|

Chorus 0:54

----------------------------------------------|
----------------------------------------------|
-7777--2222--4444--0000--00000000--22222222---|
----------------------------------------------|  x2

------------|
------------|
------------|
-00-00-00---|

Verse 1:17

-----------------------------------------------------------|
-----------------------------------------------------------|
----------22222222--44444444--00000000-0000------22222222--|
-00000000-----------------------------------0000-----------|

-----------------------------------------------------------|
-----------------------------------------------------------|
-7777--6666--4444--0000--7777--6666--4444--0000------------|
-----------------------------------------------------------|

Pre-Chorus 1:36

--------------------------------|
--------------------------------|
-44444--00000---------22222-----|
---------------00000------------|  x2

-------------------------------|
-------------------------------|
-00000000--22222222------------|
-------------------------------|

Chorus 1:51

----------------------------------------------|
----------------------------------------------|
-7777--2222--4444--0000--00000000--22222222---|
----------------------------------------------|  x2

Bridge (guitar plays riff first, bass comes in at 2:16)

---------------------------|
-----------------------2---|
-44-2-0--0-1-2-22-1-00-----|
---------------------------| x3

---------------------------|
---------------------------|
-44-2-0--0-1-2222222-------|
---------------------------|

Interlude 2:26 (play 4 times, last 2 times there is no guitars, only bass)

-------------------------------------|
-------------------------------------|
-------22-2--4-444--0000--22222222---|
-0000--------------------------------| x4

Outro 2:46

----------------------------------------------------------------------|
----------------------------------------------------------------------|
----------22222222--44444444--00000000-000000000000000--22222222------|
-00000000-------------------------------------------------------------|  x2

-------------------------------------|
-------------------------------------|
-------22-2--4-444--0000--22222222---|
-0000--------------------------------| x2

------------|
------------|
------------|
-00-00-00---|


enjoy
exibições 593

0 comentários

mostrar mais comentários

Conseguiu tocar?

0 tocaram 0 ainda não

Grave um vídeo tocando Take A Look At Yourself e mande pra gente!

00:00 / 00:00
outros vídeos desta música
repetir qualidade Automático
Outros vídeos desta música
00:00 / 00:00
Automático
OK