Cifra Club

We're all to blame

Sum 41

Cifra: Principal (violão e guitarra)
Tom: C
              InTro
E|--------------------------------|
B|--------------------------------|
G|9---9-9-9---9-9-9---9-9-10--9---|
D|x---x-x-x---x-x-x---x-x-x---x---|
A|7---7-7-7---7-7-7---7-7-8---7---|
E|--------------------------------|

E|--------------------------------|
B|--------------------------------|
G|9---9-9-9---9-9-9---9-9-10--9---|
D|x---x-x-x---x-x-x---x-x-x---x---|
A|7---7-7-7---7-7-7---7-7-8---7---|
E|--------------------------------|

E|--------------------------------|
B|--------------------------------|
G|9---9-9-9---9-9-9---9-9-10--9---|
D|x---x-x-x---x-x-x---x-x-x---x---|
A|7---7-7-7---7-7-7---7-7-8---7---|
E|--------------------------------|

E|--------------------------------|
B|--------------------------------|
G|--------------------------------|
D|10---9----10---12---9----10-----|
A|10---9----10---12---9----10-----|
E|8----7----8----10---7----8------|

(0:09)
E|--------------------------------|
B|--------------------------------|
G|------------------------12------|
D|2-2-2-2-2-2-2-2-2-------x-------|
A|2-2-2-2-2-2-2-2-2-------10------|
E|0-0-0-0-0-0-0-0-0---------------|

E|--------------------------------|
B|--------------------------------|
G|------------------------12------|
D|2-2-2-2-2-2-2-2-2-------x-------|
A|2-2-2-2-2-2-2-2-2-------10------|
E|0-0-0-0-0-0-0-0-0---------------|

E|--------------------------------|
B|--------------------------------|
G|------------------------12------|
D|2-2-2-2-2-2-2-2-2-------x-------|
A|2-2-2-2-2-2-2-2-2-------10------|
E|0-0-0-0-0-0-0-0-0---------------|

E|--------------------------------| \
B|--------------------------------| |
G|--------------------------------| | 
D|10---9----10---12---9----10-----| |- >Abafado
A|10---9----10---12---9----10-----| |
E|8----7----8----10---7----8------|/

====================== VERS0 =============
E|---------------------------------------|
B|---------------------------------------|
G|--7-7-7-7-7-7-2--5-5-5-5-3-3-3-3-------|
D|--x-x-x-x-x-x-x--x-x-x-x-x-x-x-x-------|
A|--5-5-5-5-5-5-0--3-3-3-3-1-1-1-1-------|
E|---------------------------------------|

e|------------------------|
B|------------------------|
G|------------------------|
D|------------------------|
A|-00-54-00-4-0-00-3-0-33-|
E|-00-32-00-2-0-00-1-0-11-|
                     PM..


E|---------------------------------------|
B|---------------------------------------|
G|--7-7-7-7-7-7-2--3-3-3-3-5-5-5-5-------|
D|--x-x-x-x-x-x-x--x-x-x-x-x-x-x-x-------|
A|--5-5-5-5-5-5-0--1-1-1-1-3-3-3-3-------|
E|---------------------------------------|

e|------------------------|
B|------------------------|
G|------------------------|
D|------------------------|
A|-00-54-00-4-0-00-3-0-33-|
E|-00-32-00-2-0-00-1-0-11-|
                     PM..

E|---------------------------------------|
B|---------------------------------------|
G|--7-7-7-10-10-10-9-9-9-5-5-5-9-9-9-9---|
D|--x-x-x-x--x--x--x-x-x-x-x-x-x-x-x-x---|
A|--5-5-5-8--8--8--7-7-7-3-3-3-7-7-7-7---|
E|---------------------------------------|

e|------------------------|
B|------------------------|
G|------------------------|
D|------------------------|
A|-00-54-00-4-0-00-3-0-33-|
E|-00-32-00-2-0-00-1-0-11-|
                     PM..

E|---------------------------------------|
B|---------------------------------------|
G|--7-7-7-10-10-10-5-5-12-12-12-10-10-10-|
D|--x-x-x-x--x--x--x-x--x--x--x-x--x--x--|
A|--5-5-5-8--8--8--3-3-10-10-10-8--8--8--|
E|---------------------------------------

e|------------------------|
B|------------------------|
G|------------------------|
D|------------------------|
A|-00-54-00-4-0-00-3-0-33-|
E|-00-32-00-2-0-00-1-0-11-|
                     PM..

E|--------------------------------|
B|--------------------------------|
G|--------------------------------|
D|10---9----10---12---9----10-----|
A|10---9----10---12---9----10-----|
E|8----7----8----10---7----8------|

====================== refrão ============
Guitarra 1 (solo)
E|----------8---8---5---5---6---6----|\   
B|--8---8-----8---8---6---6---6---6--|| 
G|----7---7--------------------------||
D|-----------------------------------|| -> 3 X
A|-----------------------------------||
E|-----------------------------------|/

Guitarra (base)
E|-----------------------------------|--------|
B|-----------------------------------|--------|
G|----------5-5-5-5---------7-7-7-7--|---7~---|
D|--5-5-5-5-5-5-5-5-3-3-3-3-7-7-7-7--|---7~---| 3X
A|--5-5-5-5-3-3-3-3-3-3-3-3-5-5-5-5--|---5~---|
E|--3-3-3-3---------5-5-5-5----------|--------|


E|--------------------------------|
B|--------------------------------|
G|--------------------------------|
D|10---9----10---12---9----10-----| 1x
A|10---9----10---12---9----10-----|
E|8----7----8----10---7----8------|

E|--------------------------------| 
B|--------------------------------|  
G|--------------------------------| 
D|2-------2-------2-------2-------| 1x
A|2-------2-------2-------2-------| 
E|0-------0-------0-------0-------|



====================== VERS0 =============
E|---------------------------------------|
B|---------------------------------------|
G|--7-7-7-7-7-7-2--5-5-5-5-3-3-3-3-------|
D|--x-x-x-x-x-x-x--x-x-x-x-x-x-x-x-------|
A|--5-5-5-5-5-5-0--3-3-3-3-1-1-1-1-------|
E|---------------------------------------|

e|------------------------|
B|------------------------|
G|------------------------|
D|------------------------|
A|-00-54-00-4-0-00-3-0-33-|
E|-00-32-00-2-0-00-1-0-11-|
                     PM..


E|---------------------------------------|
B|---------------------------------------|
G|--7-7-7-7-7-7-2--3-3-3-3-5-5-5-5-------|
D|--x-x-x-x-x-x-x--x-x-x-x-x-x-x-x-------|
A|--5-5-5-5-5-5-0--1-1-1-1-3-3-3-3-------|
E|---------------------------------------|

e|------------------------|
B|------------------------|
G|------------------------|
D|------------------------|
A|-00-54-00-4-0-00-3-0-33-|
E|-00-32-00-2-0-00-1-0-11-|
                     PM..


E|---------------------------------------|
B|---------------------------------------|
G|--7-7-7-10-10-10-9-9-9-5-5-5-9-9-9-9---|
D|--x-x-x-x--x--x--x-x-x-x-x-x-x-x-x-x---|
A|--5-5-5-8--8--8--7-7-7-3-3-3-7-7-7-7---|
E|---------------------------------------|

e|------------------------|
B|------------------------|
G|------------------------|
D|------------------------|
A|-00-54-00-4-0-00-3-0-33-|
E|-00-32-00-2-0-00-1-0-11-|
                     PM..


E|---------------------------------------|
B|---------------------------------------|
G|--7-7-7-10-10-10-5-5-12-12-12-10-10-10-|
D|--x-x-x-x--x--x--x-x--x--x--x-x--x--x--|
A|--5-5-5-8--8--8--3-3-10-10-10-8--8--8--|
E|---------------------------------------

e|------------------------|
B|------------------------|
G|------------------------|
D|------------------------|
A|-00-54-00-4-0-00-3-0-33-|
E|-00-32-00-2-0-00-1-0-11-|
                     PM..


E|--------------------------------|
B|--------------------------------|
G|--------------------------------|
D|10---9----10---12---9----10-----|
A|10---9----10---12---9----10-----|
E|8----7----8----10---7----8------|

====================== refrão ============
Guitarra 1 (solo)
E|----------8---8---5---5---6---6----|\   
B|--8---8-----8---8---6---6---6---6--|| 
G|----7---7--------------------------||
D|-----------------------------------|| -> 3 X
A|-----------------------------------||
E|-----------------------------------|/

Guitarra (base)
E|-----------------------------------|--------|
B|-----------------------------------|--------|
G|----------5-5-5-5---------7-7-7-7--|---7~---|
D|--5-5-5-5-5-5-5-5-3-3-3-3-7-7-7-7--|---7~---| 3X
A|--5-5-5-5-3-3-3-3-3-3-3-3-5-5-5-5--|---5~---|
E|--3-5-5-5---------5-3-3-3----------|--------|

----------------------------------------------------


  "Sacrifice!!..."
e|----------------------------------|
B|----------------------------------|
G|----------------------------------|
D|----------------------------------|   x2
A|-50000000-40000000-50000000-05474-|
E|-30000000-20000000-30000000-03252-|

  "Tell me now..."
e|----------------------------------------|
B|----------------------------------------|
G|----------------------------------------|
D|----------------------------------------|
A|-00000000--00000000--00000000--00000000-|
E|-00000000--00000000--00000000--00000000-|

  "Believe me now..."
e|---------------------------------------|
B|---------------------------------------|
G|---------------------------------------|
D|---------------------------------------|
A|-00000000----00000000----00000000----5-|16x
E|-00000000-8--00000000-7--00000000-8--3-|
                                       |>16vezesP.M 


====================== refrão ============
Guitarra 1 (solo)
E|----------8---8---5---5---6---6----|\   
B|--8---8-----8---8---6---6---6---6--|| 
G|----7---7--------------------------||
D|-----------------------------------|| -> 3 X
A|-----------------------------------||
E|-----------------------------------|/

Guitarra (base)
E|-----------------------------------|--------|
B|-----------------------------------|--------|
G|----------5-5-5-5---------7-7-7-7--|---7~---|
D|--5-5-5-5-5-5-5-5-3-3-3-3-7-7-7-7--|---7~---| 3X
A|--5-5-5-5-3-3-3-3-3-3-3-3-5-5-5-5--|---5~---|
E|--3-5-5-5---------5-3-3-3----------|--------|
exibições 12.392
Acordes para:

    0 comentários

    mostrar mais comentários

    Conseguiu tocar?

    1 tocaram 0 ainda não

    Grave um vídeo tocando We're all to blame e mande pra gente!

    00:00 / 00:00
    outros vídeos desta música
    repetir qualidade Automático
    Outros vídeos desta música
    00:00 / 00:00
    Automático
    OK