Cifra Club

Aprenda

Cancion Del Mariachi

Sungha Jung

Cifra: Principal (violão e guitarra)
tom: G
parte 1

E|------------------|----------------------------------------------------------------------------
B|----------0-------|-1--------0----------1----------0-------------------------------------------
G|--------0---0-----|----0--------0----------0---------0-----------------------------------------
D|--------------2---|-------2----------2--------2---------0--------------------------------------
A|------------------|----------------------------------------------------------------------------
E|---0--------------|----------------------------------------------------------------------------

E|------------------------------------|----------------------------------------------------------
B|----1-----------0-------------------|----------------------------------------------------------
G|-------0-----------------0---2------|------2---------------------------------------------------
D|----------2----------------0--------|------1---------------------------------------------------
A|------------------------------------|------2---------------------------------------------------
E|------------------------------------|----------------------------------------------------------

E|----------------------------|------------------------------------------------------------------
B|----------------------------|----0----------0--------------------------------------------------
G|------------2---------2-----|--------2-----------2---------------------------------------------
D|--------1---------1---------|-----------1------------1-----------------------------------------
A|--2-------------------------|------------------------------------------------------------------
E|----------------------------|------------------------------------------------------------------

                                                                                                2x
E|---------------------------------------|--------------------------------------------------------
B|----0------------0---------------------|--------------------------------------------------------
G|-------2--------------------2-----0----|---0----------------------------------------------------
D|-----------1--------------------2------|---2----------------------------------------------------
A|---------------------------------------|---2----------------------------------------------------
E|---------------------------------------|--------------------------------------------------------

parte 2

E|----------------7-------|--7----7-------7-----8---|---7----7----------8------------------------
B|-------------8----------|--8----8-----------------|---8----8----8-----8------------------------
G|---------9--------------|---------------9---------|-------------9------------------------------
D|-----9------------------|-------------------------|--------------------------------------------
A|------------------------|-------------------------|--------------------------------------------
E|------------------------|-------------------------|--------------------------------------------

E|----7----7-----------------|-----------------------7----|-----------------5-----5--------------
B|----8----8---8-------10----|------7-------7--------7----|-----------------7-----7--------------
G|-------------9--------9----|------8-------8--------8----|--------------------------------------
D|---------------------------|------9-------9--------9----|--------0--7--------------------------
A|---------------------------|------9-------9--------9----|---0----------------------------------
E|---------------------------|------7-------7--------7----|--------------------------------------

parte 3

E|----5----5-----7------5--|---5-----5-------7-----5------5-|-------------------------------------
B|----7----7-----8------7--|---7-----7-------8-----7------7-|----7----8---------------------------
G|-------------------------|--------------------------------|----8----9-----------4---4-----------
D|-------------------------|--------------------------------|---------------------5---5-----------
A|-------------------------|--------------------------------|-------------------------------------
E|-------------------------|--------------------------------|-------------------------------------

parte 4

E|-----------------------------------------------------------------------------------------------
B|-----------------------------------------------------------------------------------------------
G|-----------------------------------------------------------------------------------------------
D|-----------------------------------------------------------------------------------------------
A|-----------------------------------------------------------------------------------------------
E|-----------------------------------------------------------------------------------------------

E|-----------------------------------------------------------------------------------------------
B|-----------------------------------------------------------------------------------------------
G|-----------------------------------------------------------------------------------------------
D|-----------------------------------------------------------------------------------------------
A|-----------------------------------------------------------------------------------------------
E|-----------------------------------------------------------------------------------------------

E|-----------------------------------------------------------------------------------------------
B|-----------------------------------------------------------------------------------------------
G|-----------------------------------------------------------------------------------------------
D|-----------------------------------------------------------------------------------------------
A|-----------------------------------------------------------------------------------------------
E|-----------------------------------------------------------------------------------------------
Composição de Lo Lobos
Colaboração e revisão:
  • Juarez Alves
7.500 exibições
    • ½ Tom
    • A
    • Bb
    • B
    • C
    • Db
    • D
    • Eb
    • E
    • F
    • F#
    • G
    • Ab
  • Adicionar à lista

    0 comentários

    Ver todos os comentários

    Conseguiu tocar?

    0 Tocaram 0 Ainda não

    Grave um vídeo tocando Cancion Del Mariachi e nos envie!

    00:00 / 00:00
    outros vídeos desta música
    repetir qualidade Automático
    Outros vídeos desta música
    00:00 / 00:00
    Automático

    Cifra Club Pro

    Aproveite o Cifra Club com benefícios exclusivos e sem anúncios
    Cifra Club Pro
    Aproveite o Cifra Club com benefícios exclusivos e sem anúncios
    OK