Cifra Club

Aprenda

Country Road

Sungha Jung

Cifra: Principal (violão e guitarra)
Já pensou em usar uma coleção de roupas do Cifra Club? Responda as perguntas abaixo e nos ajude nessa missão! →
tom: E
   PM PM PM PM   PM   PM   PM   PM      PM PM PM PM   PM   PM   PM   PM    
     E  E  E  S  S S  S S  S S  S S  S    E  E  E  S  S S  S S  S S  S S  S  
E|------------------------0-----------|------------------------0-----------|
B|-------------------5---------5------|-------------------5---------5------|
G|--------------6-------------------6-|--------------6-------------------6-|
D|-----7-----7---------7---------7----|-----7-----7---------7---------7----|
A|--0-------------0-------------------|--0-------------0-------------------|
E|--------0-----------------0---------|--------0-----------------0---------|

    PM PM PM PM    PM PM   PM  PM     PM PM PM PM   PM   PM PM PM  
      E  E  E  S  S  E  S  S E   E      E  E  E  S  S S  S E  E  E
E|---------------------------------|--------2-----2----5----------|
B|--------5-----5h-7-----5---------|-----------5-------2----------|
G|--------------6------------------|------------------------------|
D|-----7-----7--------7-------(7)--|-----2-----2---------2-----2--|
A|--0--------------0---------------|------------------------------|
E|--------0----------------0-------|--2-----2-------2-------2-----|

    PM      PM PM PM   PM   PM PM    PM    PM     
      E    E  E  E  S  S S  S E  E     E  E  E  E
E|----------7-----7h-9----7-------|--------------|
B|--------------------------------|--7--7--7--5--|
G|--------------------------------|-----7--------|
D|-------------9-------9-------9--|--0-----0-----|
A|-----2g7------------------------|--------------|
E|--0-------0-----0---------0-----|--------------|

    PM PM   PM PM PM   PM   PM   PM    PM PM PM PM    PM PM   PM  PM   
     E  S  S E  E  S  S S  S S  S E     E  E  E  S  S  E  S  S E   E
E|--5-----5--------------------5----|---------------------------------|
B|--5-----5---------------5---------|--5-----5-----5h-7-----5---------|
G|----------------6h-7--------------|--6--------6--6------------------|
D|-----7-------7-------7---------7--|-----7-----7--------7-------(7)--|
A|--0-------------0-----------------|--0--------------0---------------|
E|----------0---------------0-------|--------0----------------0-------|

  PM PM   PM      PM     PM  PM    PM PM   PM   PM PM   PM   PM PM  
   E  S  S E    E  E   E  E   E     E  S  S S  S E  S  S S  S E  E
E|--2-----5----5g9--L---9---------|--7-----7----7----7h-9----7-------|
B|--2-----2------------10---------|--9-----9-------------------------|
G|--------------------------------|----------------------------------|
D|-----2----------------------11--|-----9---------9-------9-------9--|
A|------------------9------9------|----------------------------------|
E|--2-------2---------------------|--0-------0-------0---------0-----|

    PM   ^  PM         ^              PM PM PM PM   PM   PM            
    S  S E  E  S  S E  E  S S S  S    E  E  E  S  S S  S E    E  S  S  
E|-----5----5--7p-5-------5---7s-9-|--------L-----0---------9g7--5h-7-|
B|--7----7-------------0--0--------|-------------------0--------------|
G|-------7-------------6------7s-9-|--------L---------------9g7-------|
D|--0-------0----------------------|-----7-----7---------7------------|
A|------------------0--------------|--0-------------0---------0-------|
E|---------------------------------|--------0-------------------------|

    PM      PM   PM   PM   PM PM     PM     
    E  S  S S  S S  S S  S E  S  S   S   S  
E|------------------0---------7h-9p--7-----|
B|-------------9---------9--------------10-|
G|-----------------------------------------|
D|-----7s-9-L----9---------9--------(0)----|
A|-----------------------------------------|
E|--0-------0---------0-------0------------|

    PM  PM PM  PM   PM     PM PM           
    E   E  E   S  S S   S  E  S  S  S   S  
E|----------------------------9----12s-14-|
B|---------------------10-----------------|
G|-----11--------11-----------------------|
D|-----11-----11----------11--------------|
A|--9------9--------9---------9-----------|
E|----------------------------------------|

    PM      PM   PM   PM     PM     PM         
    E   E   E    S  S S   S  E      E   S   S  
E|------L----------------14-----14g12--10h-12-|
B|-----14----------14-------------------------|
G|-----14-------14----------14----------------|
D|--0-------0---------0-------------0---------|
A|---------(0)--------------------------------|
E|--------------------------------------------|

    PM   PM PM PM   PM   PM              PM   PM PM PM   PM   PM PM        
    S  S E  E  S  S S  S E    E  S  S    S  S E  E  S  S S  S E  S  S S S  
E|-----9----------0---------9g7--5h-7-|-----9---------------7----7----5-5-|
B|---------------------0--------------|----------------9------------------|
G|-----9--------------------9g7-------|-----------------------------------|
D|-------7-----7---------7------------|-------9-----9---------9-----------|
A|--0---------------0---------0-------|-----------------------------------|
E|----------0-------------------------|--0-------0-------0-------0--------|

    PM    PM     PM                  PM    PM PM   PM       PM PM  
     E  E  E  S S S  S E  S S S  S    E  E  E  S  S S  S S S E  E
E|------------------5----5---7p-5-|-----------------------5-------|
B|-----7-------7---------7--------|-----0-------------0-----------|
G|-----7-----7--------7-----------|-----6--------6----------------|
D|--0-----0------0-------0--------|-----------7---------7------7--|
A|--------------------------------|--0-------------0--------------|
E|--------------------------------|--------0----------------0-----|

    PM PM PM PM    PM PM   PM  PM     PM PM PM PM   PM   PM PM PM  
     E  E  E  S  S  E  S  S E   E      E  E  E  S  S S  S E  E  E
E|---------------------------------|--------2-----2----5----------|
B|--------5-----5h-7-----5---------|-----------5-------2----------|
G|--------------6------------------|------------------------------|
D|-----7-----7--------7-------(7)--|-----2-----2---------2-----2--|
A|--0--------------0---------------|------------------------------|
E|--------0----------------0-------|--2-----2-------2-------2-----|

    PM      PM PM PM   PM   PM PM    PM    PM     
     E    E  E  E  S  S S  S E  E     E  E  E  E
E|----------7-----7h-9----7-------|--------------|
B|----------9---------------------|--7--7--7--5--|
G|--------------------------------|-----7--------|
D|-------------9-------9-------9--|--0-----0-----|
A|-----2g7------------------------|--------------|
E|--0-------0-----0---------0-----|--------------|

    PM PM   PM PM PM       PM   PM    PM PM PM PM    PM PM   PM  PM   
     E  S  S E  E  S  S S S S  S E     E  E  E  S  S  E  S  S E   E
E|--5-----5-------------------5----|---------------------------------|
B|--5-----5--------------5---------|--5-----5-----5h-7-----5---------|
G|----------------6h-7-------------|--6--------6--6------------------|
D|-----7-------7-------7--------7--|-----7-----7--------7-------(7)--|
A|--0-------------0----------------|--0--------------0---------------|
E|----------0--------------0-------|--------0----------------0-------|

     PM  PM   PM        PM     PM  PM    PM PM   PM   PM PM   PM   PM PM  
      E   S  S S   S  E  E   E  E   E     E  S  S S  S E  S  S S  S E  E
E|-------------------9------9---------|--7-----7----7----7h-9----7-------|
B|---------10-------10-----10---------|--9-----9-------------------------|
G|--11-----------11-------------------|----------------------------------|
D|------11------------------------11--|-----9---------9-------9-------9--|
A|---9--------9---------9------9------|----------------------------------|
E|------------------------------------|--0-------0-------0---------0-----|

    PM   ^  PM         ^              PM PM PM PM   PM   PM            
    S  S E  E  S  S E  E  S S S  S    E  E  E  S  S S  S E    E  S  S  
E|-----5----5--7p-5-------5---7s-9-|--------L-----0---------9g7--5h-7-|
B|--7----7-------------0--0--------|-------------------0--------------|
G|-------7-------------6------7s-9-|--------L---------------9g7-------|
D|--0-------0----------------------|-----7-----7---------7------------|
A|------------------0--------------|--0-------------0---------0-------|
E|---------------------------------|--------0-------------------------|

    PM      PM   PM   PM   PM PM     PM     
    E  S  S S  S S  S S  S E  S  S   S   S  
E|------------------0---------7h-9p--7-----|
B|-------------9---------9--------------10-|
G|-----------------------------------------|
D|-----7s-9-L----9---------9--------(0)----|
A|-----------------------------------------|
E|--0-------0---------0-------0------------|

    PM  PM PM  PM   PM     PM PM           
    E   E  E   S  S S   S  E  S  S  S   S  
E|----------------------------9----12s-14-|
B|---------------------10-----------------|
G|-----11--------11-----------------------|
D|-----11-----11----------11--------------|
A|--9------9--------9---------9-----------|
E|----------------------------------------|

    PM      PM   PM   PM     PM     PM         
    E   E   E    S  S S   S  E      E   S   S  
E|------L----------------14-----14g12--10h-12-|
B|-----14----------14-------------------------|
G|-----14-------14----------14----------------|
D|--0-------0---------0-------------0---------|
A|---------(0)--------------------------------|
E|--------------------------------------------|

    PM   PM PM PM   PM   PM              PM   PM PM PM   PM   PM PM        
    S  S E  E  S  S S  S E    E  S  S    S  S E  E  S  S S  S E  S  S S S  
E|-----9----------0---------9g7--5h-7-|-----9---------------7----7----5-5-|
B|---------------------0--------------|----------------9------------------|
G|-----9--------------------9g7-------|-----------------------------------|
D|-------7-----7---------7------------|-------9-----9---------9-----------|
A|--0---------------0---------0-------|-----------------------------------|
E|----------0-------------------------|--0-------0-------0-------0--------|

    PM    PM     PM                  PM    PM PM   PM       PM          
     E  E  E  S S S  S E  S S S  S    E  E  E  S  S S  S S S S  S  E
E|------------------5----5---7p-5-|-------------------5----------------|
B|-----7-------7---------7--------|-----0----------------------0-------|
G|-----7-----7--------7-----------|-----6--------6--------6------------|
D|--0-----0------0-------0--------|-----------7---------7--------(7)--|
A|--------------------------------|--0-------------0-------------------|
E|--------------------------------|--------0----------------0----------|

                ^                                               
     E  E  E  E  E  S S E  S  S    E  E  E    E  S S S  S E  E
E|-----5--5--5--4------5--7s-9-|-----9-----8g9--9---7p-5-------|
B|-----2--2--2--0------0-------|--------0-------------------0--|
G|--------2-----1----1---------|-----9--9--8g9--9-----------6--|
D|-----------------------------|--------7----------------------|
A|--------x--------------------|--0-----x-------0--------0-----|
E|--2-----x-----0--0-----------|--------x----------------------|

     E   S  S S S  S E.  E  E  E     S  S E    E  S E.  E  S S  S   S   
E|--10--10-10-----10-9---9--7--5--|--5h-7----7g9----7------7-7---------|
B|---7---7--7------7--------------|-----------------9------9-9-----(0)-|
G|---7----------7----9---9--------|-----------------9------9---(0)-(0)-|
D|---0--------0-------------------|----------------------------(0)-----|
A|-------------------0------------|------------------------x-----------|
E|--------------------------------|--0----0-------0-----0--x-----------|
                                
     E                    E   S  S S E.  E  S  S  S   S   
E|---9--------------------9---9--9---7---7--7h-9---------|
B|--10-------------------10--10-10----------0----(0)-----|
G|---------------------------11----------------------(0)-|
D|-------------------------------------------------------|
A|---9------------------------x--------------------------|
E|----------------------------x------0-------------------|

     E   E   S  S  S  E.   S  S S E   S       E  S S E   S  S S S E  E  S   S  
E|--------------------5----5--5-5-5------|--7g9--7-7------------7----7--9s-10-|
B|--10--10--10-10-----0---(0)---0-0------|------------------9---9----9--9-----|
G|---7-------7--------6---------6----(6)-|------------------------------------|
D|---0------------(0)--------------------|--------------(9)-------9-----------|
A|-----------x------------------x--------|------------------------------------|
E|-----------x------------------x--------|----0------0--------0------0--------|

                                       PM PM PM PM   PM   PM            
    E  E   E   E   E  S  S S S S  S    E  E  E  S  S S  S E    E  S  S  
E|-----L--10--10--10--L---5---7s-9-|--------L-----0---------9g7--5h-7-|
B|-----9---9---9---9--L------------|-------------------0--------------|
G|-----7---7---7---7--L---6---7s-9-|--------L---------------9g7-------|
D|----------------------------------|-----7-----7---------7------------|
A|---------x---x---x----------------|--0-------------0---------0-------|
E|--0------x---x---x----------------|--------0-------------------------|

    PM      PM   PM   PM   PM PM     PM     
    E  S  S S  S S  S S  S E  S  S   S   S  
E|------------------0---------7h-9p--7-----|
B|-------------9---------9--------------10-|
G|-----------------------------------------|
D|-----7s-9-L----9---------9--------(0)----|
A|-----------------------------------------|
E|--0-------0---------0-------0------------|

    PM  PM PM  PM   PM     PM PM           
    E   E  E   S  S S   S  E  S  S  S   S  
E|----------------------------9----12s-14-|
B|---------------------10-----------------|
G|-----11--------11-----------------------|
D|-----11-----11----------11--------------|
A|--9------9--------9---------9-----------|
E|----------------------------------------|

    PM      PM   PM   PM     PM     PM         
    E   E   E    S  S S   S  E      E   S   S  
E|--L--14----------------14-----14g12--10h-12-|
B|-----------------14-------------------------|
G|-----14-------14----------14----------------|
D|--0-------0---------0-------------0---------|
A|---------(0)--------------------------------|
E|--------------------------------------------|

    PM   PM PM PM   PM   PM              PM   PM PM PM   PM   PM PM        
    S  S E  E  S  S S  S E    E  S  S    S  S E  E  S  S S  S E  S  S S S  
E|-----9----------0---------9g7--5h-7-|-----9---------------7----7----5-5-|
B|---------------------0--------------|----------------9------------------|
G|-----9--------------------9g7-------|-----------------------------------|
D|-------7-----7---------7------------|-------9-----9---------9-----------|
A|--0---------------0---------0-------|-----------------------------------|
E|----------0-------------------------|--0-------0-------0-------0--------|

    PM    PM     PM                  PM    PM PM   PM                
    E  E  E  S S S  S E  S S S  S    E  E  E  S  S S  S E  S S S  S  
E|------------------5----5---7p-5-|------------------------5---7s-9-|
B|-----7-------7---------7--------|-----0-------------0-------------|
G|-----7-----7--------7-----------|-----6--------6---------6---7s-9-|
D|--0-----0------0-------0--------|-----------7---------7-----------|
A|--------------------------------|--0-------------0----------------|
E|--------------------------------|--------0------------------------|

    PM PM PM PM   PM   PM              PM      PM   PM   PM   PM PM     PM     
    E  E  E  S  S S  S E    E  S  S    E  S  S S  S S  S S  S E  S  S   S   S  
E|--------L-----0---------9g7--5h-7-|------------------0---------7h-9p--7-----|
B|-------------------0--------------|-------------9---------9--------------10-|
G|--------L---------------9g7-------|-----------------------------------------|
D|-----7-----7---------7------------|-----7s-9-L----9---------9--------(0)----|
A|--0-------------0---------0-------|-----------------------------------------|
E|--------0-------------------------|--0-------0---------0-------0------------|

    PM  PM PM  PM   PM     PM PM           
    E   E  E   S  S S   S  E  S  S  S   S  
E|----------------------------9----12s-14-|
B|---------------------10-----------------|
G|-----11--------11-----------------------|
D|-----11-----11----------11--------------|
A|--9------9--------9---------9-----------|
E|----------------------------------------|

    PM                                       PM   PM PM PM   PM   PM            
    E   E      E   E  E  E      E   S   S    S  S E  E  S  S S  S E    E  S  S  
E|--L------16g17---L--------14g12--10h-12-|-----9----------0---------9g7--5h-7-|
B|-----14---------14----------------------|---------------------0--------------|
G|-----14---------14----------------------|-----9--------------------9g7-------|
D|--0-----------------0--0----------------|-------7-----7---------7------------|
A|----------------------------------------|--0---------------0---------0-------|
E|----------------------------------------|----------0-------------------------|

    PM   PM PM PM   PM   PM PM          PM    PM     PM                
    S  S E  E  S  S S  S E  S  S S S    E  E  E  S S S  S E  S S S  S  
E|-----9---------------7----7----5-5-|------------------5----5---7p-5-|
B|----------------9------------------|-----7-------7---------7--------|
G|-----------------------------------|-----7-----7--------7-----------|
D|-------9-----9---------9-----------|--0-----0------0-------0--------|
A|-----------------------------------|--------------------------------|
E|--0-------0-------0-------0--------|--------------------------------|

    PM    PM     PM                  PM      PM   PM   PM   PM PM        
    E  E  E  S S S  S E    E  S S    E  S  S S  S S  S S  S E  S  S S S  
E|------------------5----9g7--5-7-|------------------0---------7----5-5-|
B|-----0--------------------------|-------------9---------9-------------|
G|-----6-------6------------------|-------------------------------------|
D|-----------7--------------------|-----7s-9-L----9---------9-----------|
A|--0------------0----0-----------|-------------------------------------|
E|--------0-----------------------|--0-------0---------0-------0--------|

    PM    PM     PM                  PM      PM   PM   PM   PM PM        
    E  E  E  S S S  S E    E  S S    E  S  S S  S S  S S  S E  S  S S S  
E|------------------5----9g7--5-7-|------------------7----9----7----5-5-|
B|-----0-------0------------------|-------------9-----------------------|
G|-----6-------6------------------|-------------------------------------|
D|-----------7--------7-----------|-----7s-9-L----9---------9-----------|
A|--0------------0---------0------|-------------------------------------|
E|--------0-----------------------|--0-------0---------0-------0--------|

                     ^       NH                         
       |-3|  |-3|                                       
    E  E  S  E  S E  E  E    Q       W                  
E|--------------5-5--5-----5----|--L----------------||
B|--------------5-5--5-----5----|--L----------------||
G|--------6h-7----7--6-------6----|--L----------------||
D|--------7-------7--7------------|-------------------||
A|--0--0----------x--0--0---------|--L----------------||
E|----------------x---------------|-------------------||
Colaboração e revisão:
  • Luis siqueira
1.021 exibições
    • ½ Tom
    • A
    • Bb
    • B
    • C
    • Db
    • D
    • Eb
    • E
    • F
    • F#
    • G
    • Ab
  • Adicionar à lista

    0 comentários

    Ver todos os comentários

    Conseguiu tocar?

    0 Tocaram 0 Ainda não

    Grave um vídeo tocando Country Road e nos envie!

    00:00 / 00:00
    outros vídeos desta música
    repetir qualidade Automático
    Outros vídeos desta música
    00:00 / 00:00
    Automático

    Cifra Club Pro

    Aproveite o Cifra Club com benefícios exclusivos e sem anúncios
    Cifra Club Pro
    Aproveite o Cifra Club com benefícios exclusivos e sem anúncios
    OK