Cifra Club

Story Of My Life

Sungha Jung

Cifra: Principal (violão e guitarra)
tom: C
Capo 3rd Fret



INTRO:
       Am
E|---------------0-----------------------0-----------------------------------|
B|-------1p0--------1p0----------1p0--------1p0------------------------------|
G|----2-------2----------2---2-------2----------2----------------------------|
D|---------------------------------------------------------------------------|
A|---------------------------------------------------------------------------|
E|---------------------------------------------------------------------------|

       C
E|---------------------------------------------------------------------------|
B|---------1---------------1------------1----------------1-------------------|
G|------------0---------------------------------------------0----------------|
D|----0h2--------2------3------3-----2-----2------0h2----------2-------------|
A|---------------------------------------------------------------------------|
E|---------------------------------------------------------------------------|
      
       Am
E|---------------0-----------------------0-----------------------------------|
B|-------1p0--------1p0----------1p0--------1p0------------------------------|
G|----2-------2----------2---2-------2----------2----------------------------|
D|---------------------------------------------------------------------------|
A|---------------------------------------------------------------------------|
E|---------------------------------------------------------------------------|

       C
E|---------------------------------------------------------------------------|
B|---------1--------------1-----------1-----------1--------------------------|
G|------------0--------------------------------------0-----------------------|
D|----0h2--------2-----3-----3-----2-----2-----2-----------------------------|
A|---------------------------------------------------------------------------|
E|---------------------------------------------------------------------------|



VERSE 1:
      Am  Written on these walls are the stories that I can't explain
E|---------------0-----------------------0-----------------------------------|
B|-------1p0--------1p0----------1p0--------1p0------------------------------|
G|----2-------2----------2---2-------2----------2----------------------------|
D|---------------------------------------------------------------------------|
A|---------------------------------------------------------------------------|
E|---------------------------------------------------------------------------|

       C
E|---------------------------------------------------------------------------|
B|---------1--------------1-----------1-------1------------------------------|
G|------------------------------------------------0--------------------------|
D|----0h2--------2-----3-----3-----2-----2-----------------------------------|
A|---------------------------------------------------------------------------|
E|---------------------------------------------------------------------------|

      Am  Leave my heart open but it stays right here empty for days
E|---------------0-----------------------0-----------------------------------|
B|-------1p0--------1p0----------1p0--------1--------------------------------|
G|----2-------2----------2---2-------2---------------------------------------|
D|---------------------------------------------------------------------------|
A|---------------------------------------------------------------------------|
E|---------------------------------------------------------------------------|

       C
E|---------------------------------------------------------------------------|
B|---------1------------1-----------1-------1--------------------------------|
G|-----------------------------------------------0---------------------------|
D|----0h2------2-----3-----3-----2-----2-------------------------------------|
A|---------------------------------------------------------------------------|
E|---------------------------------------------------------------------------|

      Am  She told me in the morning she don't feel the same about us in her bones
E|---------------0-----------------------0-----------------------------------|
B|-------1p0--------1p0----------1p0--------1--------------------------------|
G|----2-------2----------2---2-------2---------------------------------------|
D|---------------------------------------------------------------------------|
A|---------------------------------------------------------------------------|
E|---------------------------------------------------------------------------|

       C
E|---------------------------------------------------------------------------|
B|---------1-------------1--------------1--------1---------------------------|
G|--------------------------------------------------0------------------------|
D|----0h2-----2------3-------3------2-------2--------------------------------|
A|---------------------------------------------------------------------------|
E|---------------------------------------------------------------------------|

      Am  It seems to me that when I die these words will be written on my stone
E|---------------0-----------------------0-----------------------------------|
B|-------1p0--------1p0----------1p0--------1--------------------------------|
G|----2-------2----------2---2-------2---------------------------------------|
D|---------------------------------------------------------------------------|
A|---------------------------------------------------------------------------|
E|---------------------------------------------------------------------------|

       C
E|---------------------------------------------------------------------------|
B|---------1-------------1--------------1--------1---------------------------|
G|--------------------------------------------------0------------------------|
D|----0h2-----2------3-------3------2-------2--------------------------------|
A|---------------------------------------------------------------------------|
E|---------------------------------------------------------------------------|



PRECHORUS:
    And I'll be gone, gone tonight. The ground beneath my...
E|---------------------------------0-----------------------------------------|
B|-----------------0-------1-----------1-------------------------------------|
G|--------2-------------0----------------------------------------------------|
D|----3-------3--------------------------------------------------------------|
A|---------------------------------------------------------------------------|
E|---------------------------------------------------------------------------|

    ... feet is open wide. The way that I've been...
E|---------------------------------0-----------------------------------------|
B|-----------------0-------1-----------1-------------------------------------|
G|--------2-------------0----------------------------------------------------|
D|----3-------3--------------------------------------------------------------|
A|---------------------------------------------------------------------------|
E|---------------------------------------------------------------------------|

    ...holding on too tight. With nothing in between.
E|---------------------------------0------|----------------------------------|
B|-----------------0-------1-----------1--|-0---------0----------0---------0-|
G|--------2-------------0-----------------|---0----------0----------0--------|
D|----3-------3---------------------------|--------5----------5---------5----|
A|----------------------------------------|----------------------------------|
E|----------------------------------------|----------------------------------|
00:00 / 00:00
Outros vídeos desta música
Repetir
Outros vídeos desta música
Compositor não encontrado.
Colaboração e revisão:
  • karoline paula
1.189 exibições
    • ½ Tom
    • A
    • Bb
    • B
    • C
    • Db
    • D
    • Eb
    • E
    • F
    • F#
    • G
    • Ab
  • Adicionar à lista

    0 comentários

    Ver todos os comentários

    Conseguiu tocar?

    0 Tocaram 0 Ainda não

    Grave um vídeo tocando Story Of My Life e nos envie!

    Entre para oCifra Club PRO

    Tenha acesso a benefícios exclusivos no App e no Site

    • Chega de anúncios

    • Prioridade de compra em lançamentos

    • Mais recursos no app do Afinador

    • Atendimento Prioritário

    • Descontos nos produtos Cifra Club

    • Ajude a produzir mais conteúdo

    00:00 / 00:00

    Cifra Club Pro

    Aproveite o Cifra Club com benefícios exclusivos e sem anúncios
    Cifra Club Pro
    Aproveite o Cifra Club com benefícios exclusivos e sem anúncios
    OK