One

Swedish House Mafia

tom: G
E|-5-3-1-0-1-1-1-1-1-1--1-1--|-5-3-1-0-3-3-3-3-3-3--3-3--|
B|---------------------------|---------------------------|
G|---------------------------|---------------------------|
D|-0-0-0-0-0-0-0-0-0-0--0-0--|-0-0-0-0-0-0-0-0-0-0--0-0--|
A|---------------------------|---------------------------|
E|---------------------------|---------------------------|

E|---------------------------|---------------------------|
B|-3-5-6-8-6-5-3-1-----------|-3-5-6-8-6-5-3-1-----------|
G|-----------------2-0-2-----|-----------------2-0-2-----|
D|---------------------------|---------------------------|
A|---------------------------|---------------------------|
E|---------------------------|---------------------------|

Página 1 / 1

Letras e título
Acordes e artista

resetar configurações
OK