Cifra Club

Aprenda

Hard Feelings

Symbols

Cifra: Principal (violão e guitarra)
tom: G



 OBSERVAÇÕES:
 *Afinação meio tom abaixo (Eb Ab Db Gb Bb eb)
 *Tonalidade: Sol(b) Maior
 *Legenda: / =slide
           h =hammer on
           p =pull of
           ~ =deixe soar  


INTRO:

     G           C9                 Em7         D        D4   ......2x
eb|--3--3-3-3-3--3---3-3-3-3-3-3-3--3--3-3-3-3--2--2-2-2-3-3-3-3----||
Bb|--3--3-3-3-3--3---3-3-3-3-3-3-3--3--3-3-3-3--3--3-3-3-3-3-3-3----||
Gb|--0--0-0-0-0--0---0-0-0-0-0-0-0--0--0-0-0-0--2--2-2-2-2-2-2-2--*-||
Db|--0--0-0-0-0--2---2-2-2-2-2-2-2--2--2-2-2-2--0--0-0-0-0-0-0-0--*-||
Ab|--2--2-2-2-2--3---3-3-3-3-3-3-3--2--2-2-2-2----------------------||
Eb|--3--3-3-3-3---------------------0--0-0-0-0----------------------||

     G           C9                 Em7         D                                  G
eb|--3--3-3-3-3--3---3-3-3-3-3-3-3--3--3-3-3-3--2------3-----2-----0--2-2h3p2---3--3-||
Bb|--3--3-3-3-3--3---3-3-3-3-3-3-3--3--3-3-3-3--3--------3-----3--------------3----3-||
Gb|--0--0-0-0-0--0---0-0-0-0-0-0-0--0--0-0-0-0--2----------2-----2-----------------0-||
Db|--0--0-0-0-0--2---2-2-2-2-2-2-2--2--2-2-2-2--0---0------------------------------0-||
Ab|--2--2-2-2-2--3---3-3-3-3-3-3-3--2--2-2-2-2-------------------------------------2-||
Eb|--3--3-3-3-3---------------------0--0-0-0-0-------------------------------------3-||




  G       C9              Em7        D
   I hope to live more to take care of you
  G    C9              Em7   D
   I can wonder why to me is not enough
  G         C9                  Em7    D
   I was living without reason, when I saw you
  G        C9                        Em7         D
   You changed my mind and soul, you changed all my life


Am   C
   I have no choice
Em        D
   I must close my eyes
Am         C
   To give all my love
Em       D
   Don't be afraid


  G      C9             Em7    D
   It's always the same I lost my mind
  G      C9                   Em7         D
   And when the night falls I try to keep the faith
  G      C9                 Em7     D
   Someday I will know what you really mean
  G    C9                   Em7   D
   I need to find someway I gotta have you


Am         C
   I dream all the time
Em         D
   I wanna make you happy
Am        C
   Always by my side
Em          D
   Always together


 Em                             G
   It's a hard felling (that) I can't understand
 C9                        D
   Now doesn't matter, I'm ready to move on
 Em                             G
   It's a hard feeling (that) I can't understand
 C9                   D             Em
   It's unfair, but together we can win


 1º SOLO: 
    
    -Base: tocada 4 vezes

     G           C9                 Em7         D        D4   ......4x
eb|--3--3-3-3-3--3---3-3-3-3-3-3-3--3--3-3-3-3--2--2-2-2-3-3-3-3----||
Bb|--3--3-3-3-3--3---3-3-3-3-3-3-3--3--3-3-3-3--3--3-3-3-3-3-3-3----||
Gb|--0--0-0-0-0--0---0-0-0-0-0-0-0--0--0-0-0-0--2--2-2-2-2-2-2-2--*-||
Db|--0--0-0-0-0--2---2-2-2-2-2-2-2--2--2-2-2-2--0--0-0-0-0-0-0-0--*-||
Ab|--2--2-2-2-2--3---3-3-3-3-3-3-3--2--2-2-2-2----------------------||
Eb|--3--3-3-3-3---------------------0--0-0-0-0----------------------||

    -Solo:

eb|-----------------------------------------------------------------------------------7----
Bb|--------8-7----------------------------------------------8--7------8----------8-10---10-
Gb|-/7--9-------7/9\7------7--7h9p7------------7~----/7--9--------7h9--------7h9-----------
Db|--------------------/9------------9p7--9p7----------------------------7h9---------------
Ab|----------------------------------------------------------------------------------------
Eb|----------------------------------------------------------------------------------------

              |-sweep-|
   -----------------12--14-15-12----10-12-10~---------------------7-----8-----10-----8-----
   ----8h10~-----10--------------12---------------------------------8-----8------8-----8---
   -7h9--------9-------------------------------4-5-7-5-4---4----------7-----7------7-----7-
   ------------------------------------------------------5---5-----------------------------
   ------------------------------------------------------------5~--------------------------
   ----------------------------------------------------------------------------------------

   -7-------7--5--3/2~-----|
   ---8-----8--7--5/3~-----|
   -----7------------------|
   ------------------------|
   ------------------------|
   ------------------------|



Am         C
   I dream all the time
Em         D
   I wanna make you happy
Am        C
   Always by my side
Em          D
   Always together


 Em                             G
   It's a hard felling (that) I can't understand
 C9                        D
   Now doesn't matter, I'm ready to move on
 Em                             G
   It's a hard feeling (that) I can't understand
 C9                   D             Em
   It's unfair, but together we can win


 2º SOLO: 
    
    -Base: tocada 2 vezes

     G           C9                 Em7         D        D4   ......2x
eb|--3--3-3-3-3--3---3-3-3-3-3-3-3--3--3-3-3-3--2--2-2-2-3-3-3-3----||
Bb|--3--3-3-3-3--3---3-3-3-3-3-3-3--3--3-3-3-3--3--3-3-3-3-3-3-3----||
Gb|--0--0-0-0-0--0---0-0-0-0-0-0-0--0--0-0-0-0--2--2-2-2-2-2-2-2--*-||
Db|--0--0-0-0-0--2---2-2-2-2-2-2-2--2--2-2-2-2--0--0-0-0-0-0-0-0--*-||
Ab|--2--2-2-2-2--3---3-3-3-3-3-3-3--2--2-2-2-2----------------------||
Eb|--3--3-3-3-3---------------------0--0-0-0-0----------------------||

    -Solo:

eb|----------------------7-8-10----------/12--10--8--7h8p7-----7------------------7--------
Bb|--------8-7-8-10-8-10--------8~--------------------------10---8-10---------/8-----8~----
Gb|--9-7-9-------------------------------------------------------------7~------------------
Db|----------------------------------------------------------------------------------------
Ab|----------------------------------------------------------------------------------------
Eb|----------------------------------------------------------------------------------------

                                   |-sweep-|
   --7-7-7/5-5/3-3/2~-------7------------7---8-10-8-7---7--------|
   --8-8-8/7-7/5-5/3~---/8-----8~------8--------------8---8------|
   ----------------------------------7-----------------------7~--|
   --------------------------------------------------------------|
   --------------------------------------------------------------|
   --------------------------------------------------------------|

    -Na terceira vez, a base do solo é tocada assim:

     G           C9                 Em7         D                                  G
eb|--3--3-3-3-3--3---3-3-3-3-3-3-3--3--3-3-3-3--2------3-----2-----0--2-2h3p2---3--3~--||
Bb|--3--3-3-3-3--3---3-3-3-3-3-3-3--3--3-3-3-3--3--------3-----3--------------3----3~--||
Gb|--0--0-0-0-0--0---0-0-0-0-0-0-0--0--0-0-0-0--2----------2-----2-----------------0~--||
Db|--0--0-0-0-0--2---2-2-2-2-2-2-2--2--2-2-2-2--0---0------------------------------0~--||
Ab|--2--2-2-2-2--3---3-3-3-3-3-3-3--2--2-2-2-2-------------------------------------2~--||
Eb|--3--3-3-3-3---------------------0--0-0-0-0-------------------------------------3~--||


  FIM
Composição de Tito Falaschi
16.413 exibições
    • ½ Tom
    • A
    • Bb
    • B
    • C
    • Db
    • D
    • Eb
    • E
    • F
    • F#
    • G
    • Ab
  • Adicionar à lista

    0 comentários

    Ver todos os comentários

    Conseguiu tocar?

    3 Tocaram 0 Ainda não

    Grave um vídeo tocando Hard Feelings e nos envie!

    00:00 / 00:00
    outros vídeos desta música
    repetir qualidade Automático
    Outros vídeos desta música
    00:00 / 00:00
    Automático

    Cifra Club Pro

    Aproveite o Cifra Club com benefícios exclusivos e sem anúncios
    Cifra Club Pro
    Aproveite o Cifra Club com benefícios exclusivos e sem anúncios
    OK