Cifra Club

Aprenda

Chop Suey!

System Of a Down

Cifra: Versão 4 (violão e guitarra)
tom: C
fala ae galera, essa e uma das musicas mais fodas do system!!!! e muito facil de tocar!!

a afinição dessa musica e em C (Dó Maior)

1° corda D
2° corda A
3° corda F
4° corda C
6° corda G
7° corda C

Introdução: Tocar 4 vezes

D|---------------------------------------------------------------------------|  
A|---------------------------------------------------------------------------|
F|5--5-5-5-5-5-5-5-5/7--7-7-7-7-7-7-7-7/4--4-4-4-4-4-4-4-4/2--2-2-2-2-2-2-2-2|   
C|7--7-7-7-7-7-7-7-7/9--9-9-9-9-9-9-9-9/5--5-5-5-5-5-5-5-5/3--3-3-3-3-3-3-3-3| 
G|0--0-0-0-0-0-0-0-0-0--0-0-0-0-0-0-0-0-0--0-0-0-0-0-0-0-0-0--0-0-0-0-0-0-0-0|
C|---------------------------------------------------------------------------|

Riff 1: Tocar 2 vezes

D|-----------------------------------------|
A|-----------------------------------------|
F|-----------------------------------------|   
C|-----------------------------------------| 
G|8h7-8h7-8h7-8h7-8h7-|7h6-7h6-7h6-7h6-7h6-|
C|8h7-8h7-8h7-8h7-8h7-|7h6-7h6-7h6-7h6-7h6-|

D|-------------------------------------------------------|  
A|-------------------------------------------------------|
F|-------------------------------------------------------|   
C|-------------------------------------------------------| 
G|10h9-10h9-10h9-10h9-10h9-|13h12-13h12-13h12-13h12-13h12|
C|10h9-10h9-10h9-10h9-10h9-|13h12-13h12-13h12-13h12-13h12|

Riff 2: Tocar 2 vezes

D|-----------------------------------------------------------------------------------|
A|-----------------------------------------------------------------------------------|
F|-----------------------------------------------------------------------------------|
C|-----------------------------------------------------------------------------------|
G|7-7-7-7-7-7-7-7-7-/6-6-6-6-6-6-6-6-6-/9-9-9-9-9-9-9-9-9-/12-12-12-12-12-12-12-12-12|
C|7-7-7-7-7-7-7-7-7-/6-6-6-6-6-6-6-6-6-/9-9-9-9-9-9-9-9-9-/12-12-12-12-12-12-12-12-12|

Riff 3: Toque o necessário.

D|--------------------------------------------------|
A|--------------------------------------------------|
F|--------------------------------------------------|
C|--------------------------------------------------|
G|8h7--8h7-8h7-8h7-8h7-7h6-|7h6--7h6-7h6-7h6-7h6-8h6|
C|8h7--8h7-8h7-8h7-8h7-7h6-|7h6--7h6-7h6-7h6-7h6-8h6|

Refrão 1: Tocar 2 vezes.

D|--------------------------------------------------------------|
A|--------------------------------------------------------------|
F|5------5-----5-|7------7-----7-|4------4------4|2------2-----2|
C|7----7---7-----|9----9---7-----|5----5---5-----|3----3---3----|
G|0--0-------0---|0--0-------0---|0--0-------0---|0--0-------0--|
C|--------------------------------------------------------------|
     P.M.--------    P.M.--------    P.M.--------    P.M.-------

Riff 4: Tocar 2 vezes

D|-----------------------------------------|
A|-----------------------------------------|
F|-----------------------------------------|   
C|-----------------------------------------| 
G|8h7-8h7-8h7-8h7-8h7-|7h6-7h6-7h6-7h6-7h6-|
C|8h7-8h7-8h7-8h7-8h7-|7h6-7h6-7h6-7h6-7h6-|

D|-------------------------------------------------------|  
A|-------------------------------------------------------|
F|-------------------------------------------------------|   
C|-------------------------------------------------------| 
G|10h9-10h9-10h9-10h9-10h9-|13h12-13h12-13h12-13h12-13h12|
C|10h9-10h9-10h9-10h9-10h9-|13h12-13h12-13h12-13h12-13h12|

Riff 5: Toque 1 vez

D|------------------------------------|        
A|------------------------------------|   
F|------------------------------------|   
C|------------------------------------|       
G|7-7-7-7-7-7-7-7-7-/6-6-6-6-6-6-6-6-6|   
C|7-7-7-7-7-7-7-7-7-/6-6-6-6-6-6-6-6-6|   

Riff 3: Toque o necessário.

D|--------------------------------------------------|
A|--------------------------------------------------|
F|--------------------------------------------------|
C|--------------------------------------------------|
G|8h7--8h7-8h7-8h7-8h7-7h6-|7h6--7h6-7h6-7h6-7h6-8h6|
C|8h7--8h7-8h7-8h7-8h7-7h6-|7h6--7h6-7h6-7h6-7h6-8h6| 

Refrão 1: Tocar 2 vezes

D|--------------------------------------------------------------|
A|--------------------------------------------------------------|
F|5------5-----5-|7------7-----7-|4------4------4|2------2-----2|
C|7----7---7-----|9----9---7-----|5----5---5-----|3----3---3----|
G|0--0-------0---|0--0-------0---|0--0-------0---|0--0-------0--|
C|--------------------------------------------------------------|
     P.M.--------    P.M.--------    P.M.--------    P.M.-------


Refrão 2: Tocar 2 vezes (é um meio q diferente COMO SE FOSSE UMA BATIDA)

D|-----------------------------------------------------------------------|
A|-----------------------------------------------------------------------|
F|5-5-5-5-5-5-5-5-5/7-7-7-7-7-7-7-7-7/4-4-4-4-4-4-4-4-4/2-2-2-2-2-2-2-2-2|
C|7-7-7-7-7-7-7-7-7/9-9-9-9-9-9-9-9-9/5-5-5-5-5-5-5-5-5/3-3-3-3-3-3-3-3-3|
G|0-0-0-0-0-0-0-0-0-0-0-0-0-0-0-0-0-0-0-0-0-0-0-0-0-0-0-0-0-0-0-0-0-0-0-0|
C|-----------------------------------------------------------------------|

Riff 1: Tocar 4 vezes

D|-----------------------------------------|
A|-----------------------------------------|
F|-----------------------------------------|   
C|-----------------------------------------| 
G|8h7-8h7-8h7-8h7-8h7-|7h6-7h6-7h6-7h6-7h6-|
C|8h7-8h7-8h7-8h7-8h7-|7h6-7h6-7h6-7h6-7h6-|

D|-------------------------------------------------------|  
A|-------------------------------------------------------|
F|-------------------------------------------------------|   
C|-------------------------------------------------------| 
G|10h9-10h9-10h9-10h9-10h9-|13h12-13h12-13h12-13h12-13h12|
C|10h9-10h9-10h9-10h9-10h9-|13h12-13h12-13h12-13h12-13h12|

Riff 2: Tocar 2 vezes

D|-----------------------------------------------------------------------------------|
A|-----------------------------------------------------------------------------------|
F|-----------------------------------------------------------------------------------|
C|-----------------------------------------------------------------------------------|
G|7-7-7-7-7-7-7-7-7-/6-6-6-6-6-6-6-6-6-/9-9-9-9-9-9-9-9-9-/12-12-12-12-12-12-12-12-12|
C|7-7-7-7-7-7-7-7-7-/6-6-6-6-6-6-6-6-6-/9-9-9-9-9-9-9-9-9-/12-12-12-12-12-12-12-12-12|

Riff 6: Tocar até o final da música (é um meio q diferente COMO SE FOSSE UMA BATIDA)

D|-------------------------------------------------------------|
A|-------------------------------------------------------------|
F|-------------------------------------------------------------|
C|-------------------------------------------------------------|
G|7--7-7-7-7-7-|10--10-10-10-10-10-|5--5-5-5-5-5-|8--8-8-8-8-8-|
C|7--7-7-7-7-7-|10--10-10-10-10-10-|5--5-5-5-5-5-|8--8-8-8-8-8-|


Ae pessoal, se vcs tiverem alguma duvida podem me adicionar (systemofadownboom@hotmail.com)
Composição de Daron Malakian / Serj Tankian
Colaboração e revisão:
  • João Bomfim
55.097 exibições
    • ½ Tom
    • A
    • Bb
    • B
    • C
    • Db
    • D
    • Eb
    • E
    • F
    • F#
    • G
    • Ab
  • Adicionar à lista

    0 comentários

    Ver todos os comentários
    00:00 / 00:00
    Outros vídeos desta música
    Repetir Qualidade Automático
    Outros vídeos desta música
    00:00 / 00:00
    Automático
    Capítulos
    • Início
    • Afinação
    • Tocando a música
    • Acordes da Introdução
    • Tocando Introdução
    • Ensinando Introdução
    • Tocando Primeira Parte
    • Ensinando Primeira Parte
    • Tocando Primeiro Refrão
    • Ensinando Primeiro Refrão
    • Tocando Segunda Parte
    • Ensinando Riff
    • Tocando Segundo Refrão
    • Ensinando Segundo Refrão
    • Tocando Passagem
    • Ensinando Passagem com Palm-Muting
    • Tocando Refrão Final
    • Ensinando Refrão Final
    • Encerramento

    Cifra Club Pro

    Aproveite o Cifra Club com benefícios exclusivos e sem anúncios
    Cifra Club Pro
    Aproveite o Cifra Club com benefícios exclusivos e sem anúncios
    OK