Cifra Club

Aprenda

Holy Mountain

System Of a Down

Cifra: Principal (violão e guitarra)
tom: E
Afinação estúdio: C# G# C# F# A# D# 
Afinação ao vivo: C  G  C  F  A  D   

Intro 2x:
D#|-------------------------------------------------------------
A#|-------------------------------------------------------------
F#|-------------------------------------------------------------
C#|------0-----------0-------0---------0---------0------------0-
G#|----0--0--0----0---0---0---0----0---0-----0---0--------0---0-
C#|--0------0--8-7------7-------12--------12--------8-7-5-------

D#|---------------------------------------------------------
A#|---------------------------------------------------------
F#|---------------------------------------------------------
C#|--------0------0---------------0------0-------0----------
G#|---0---0--0---0---0------0---0--0---0---0---0--0---------
C#|-5-------3-------3---8-7-------7-------2-------2---3-2-0-

INTRO 2X

C#|----------------------------------------------
G#|--0-0-8-7-7-12-12-8-7-5-5-3-3-8-7-2-2-3-2-0-0-
C#|--0-0-8-7-7-12-12-8-7-5-5-3-3-8-7-2-2-3-2-0-0-

    Can    you    feel    their     haunting     presence    2x

C#|-----------------------------------------------
G#|-0-----2-----3-----5-------7---8-----10--12----
C#|-0-----2-----3-----5-------7---8-----10--12----

guitarra que entra no fundo na 2º vez que repete

D#|-10-----10----10----10----10--------
A#|---10-----10----10----10----10------
F#|-----10-----10----10----10----10----

D#|-12-----12----12----12----12--------
A#|---12-----12----12----12----12------
F#|-----12-----12----12----12----12----


    LIAR, KILLER   DEMOM

C#|---------------------
G#|-1-1---1-1------1-1-
C#|-1-1---1-1------1-1-

    Back to   the river Aras

C#|--------------------------
G#|1-0-----1--0--3---1-0-0--
C#|1-0-----1--0--3---1-0-0--

    Someone's blank stare deemed it warfare

C#|-----------------------------------------
G#|-0----2-----3----5-----7-------3-5---2---
C#|-0----2-----3----5-----7-------3-5---2---

guitarra que entra no fundo 
F#|--777--999--101010--121212--141414--151515--171717--191919----------------------
C#|--xxx--xxx--xxxxxx--xxxxxx--xxxxxx--xxxxxx--xxxxxx--xxxxxx----------------------
G#|--555--777--888-----101010--121212--131313--151515--171717----------------------
C#|--------------------------------------------------------------------------------


    LIAR, KILLER DEMOM

C#|---------------------
G#|-1-1---1-1------1-1--
C#|-1-1---1-1------1-1--

    Back to   the river Aras

C#|------------------------
G#|1-0-----1--0--3---1-0---
C#|1-0-----1--0--3---1-0---

    FREEDOM...          FREEDOM..          FOR FREE...        FREE

C#|-----------------------------------------------------------------
G#|-8-8-8-7-5-7-0----8-8-8-7-5-7-0---8-8-8-7-5-7-0---8-8-8-7-5-7-0--
C#|-8-8-8-7-5-7-0----8-8-8-7-5-7-0---8-8-8-7-5-7-0---8-8-8-7-5-7-0--

INTRO
C#|----------------------------------------------
G#|--0-0-8-7-7-12-12-8-7-5-5-3-3-8-7-2-2-3-2-0-0-
C#|--0-0-8-7-7-12-12-8-7-5-5-3-3-8-7-2-2-3-2-0-0-


    Can    you   hear    the        holy          mountains

C#|---------------------------------------------
G#|-0-----2-----3-----5-------7---8-----10--12--
C#|-0-----2-----3-----5-------7---8-----10--12--

D#|-10-----10----10----10----10--------
A#|---10-----10----10----10----10------
F#|-----10-----10----10----10----10----

D#|-12-----12----12----12----12--------
A#|---12-----12----12----12----12------
F#|-----12-----12----12----12----12----

    LIAR, KILLER DEMOM

C#|---------------------
G#|-1-1---1-1------1-1--
C#|-1-1---1-1------1-1--

    Back to   the river Aras

C#|------------------------
G#|1-0-----1--0--3---1-0---
C#|1-0-----1--0--3---1-0---

    Someone's mouth said   paint   them all red

C|-----------------------------------------
G|-0----2-----3-----5-----7-------3-5----2-
C|-0----2-----3-----5-----7-------3-5----2-

guitarra que entra no fundo 
F#|--777--999--101010--121212--141414--151515--171717--191919----------------------
C#|--xxx--xxx--xxxxxx--xxxxxx--xxxxxx--xxxxxx--xxxxxx--xxxxxx----------------------
G#|--555--777--888-----101010--121212--131313--151515--171717----------------------
C#|--------------------------------------------------------------------------------

    LIAR, KILLER DEMOM

C#|---------------------
G#|-1-1---1-1------1-1--
C#|-1-1---1-1------1-1--

    Back to   the river Aras

C#|------------------------
G#|1-0-----1--0--3---1-0---
C#|1-0-----1--0--3---1-0---

    FREEDOM...          FREEDOM..          FOR FREE...        FREE

C#|-----------------------------------------------------------------
G#|-8-8-8-7-5-7-0----8-8-8-7-5-7-0---8-8-8-7-5-7-0---8-8-8-7-5-7-0--
C#|-8-8-8-7-5-7-0----8-8-8-7-5-7-0---8-8-8-7-5-7-0---8-8-8-7-5-7-0--

   SOLO

C#|----------------------------------------------------------------------
G#|----------------------------------------------------------------------
C#|-7--8--10--12--7--8--10--12--7-8-10-12-7-8-10-12-7-8-10-12-7-8-10-12--

C#|---------------------------------------------------------------------------------------
G#|-7/-8/-10/-12/-7/-8/-10/-12/-7/-8/-10/-12/-7/-8/-10/-12/-7/-8/-10/-12/-7/-8/-10/-12/---
C#|-7/-8/-10/-12/-7/-8/-10/-12/-7/-8/-10/-12/-7/-8/-10/-12/-7/-8/-10/-12/-7/-8/-10/-12/---

INTRO 

C#|----------------------------------------------
G#|--0-0-8-7-7-12-12-8-7-5-5-3-3-8-7-2-2-3-2-0-0-
C#|--0-0-8-7-7-12-12-8-7-5-5-3-3-8-7-2-2-3-2-0-0-

      They have all returned resting on the mountain side we have learned that you have no
C#|--------------------------------------------------------------------------------
G#|--0-0--------8-7-7-----12-12-----------8-7-5-5---3-3-8-7---------2--2--3-2--0-0-
C#|--0-0--------8-7-7-----12-12-----------8-7-5-5---3-3-8-7---------2--2--3-2--0-0-

  They have all returned resting on the mountain side we have learned that you have no
C#|--------------------------------------------------------------------------------
G#|--0-0--------8-7-7-----12-12-----------8-7-5-5---3-3-8-7---------2--2--3-2--0-0-
C#|--0-0--------8-7-7-----12-12-----------8-7-5-5---3-3-8-7---------2--2--3-2--0-0-

    HONOR, MURDERER, SODOMIZER

C#|---------------------
G#|-1-1---1-1------1-1--
C#|-1-1---1-1------1-1--

    Back to   the river Aras

C#|------------------------
G#|1-0-----1--0--3---1-0---
C#|1-0-----1--0--3---1-0---

  They have all returned resting on the mountain side we have learned that you have no
C|--------------------------------------------------------------------------------
G|--0-0--------8-7-7-----12-12-----------8-7-5-5---3-3-8-7---------2--2--3-2--0-0-
C|--0-0--------8-7-7-----12-12-----------8-7-5-5---3-3-8-7---------2--2--3-2--0-0-

    HONOR, MURDERER, SODOMIZER

C#|---------------------
G#|-1-1---1-1------1-1--
C#|-1-1---1-1------1-1--

    Back to   the river Aras

C#|------------------------
G#|1-0-----1--0--3---1-0---
C#|1-0-----1--0--3---1-0---

    FREEDOM...          FREEDOM..          FOR FREE...        FREE

C#|-----------------------------------------------------------------
G#|-8-8-8-7-5-7-0----8-8-8-7-5-7-0---8-8-8-7-5-7-0---8-8-8-7-5-7-0--
C#|-8-8-8-7-5-7-0----8-8-8-7-5-7-0---8-8-8-7-5-7-0---8-8-8-7-5-7-0--

FREEEEEEEEEEEEEEEEEEEEEEEEEEEEEEEEEEEEEEEEEEEEEEEE

INTRO
C#|----------------------------------------------
G#|--0-0-8-7-7-12-12-8-7-5-5-3-3-8-7-2-2-3-2-0-0-
C#|--0-0-8-7-7-12-12-8-7-5-5-3-3-8-7-2-2-3-2-0-0-

   Ohhh Oh Oh  Oh Oh Oh oh   oh oh oh  oh oh oh
C#|----------------------------------------------
G#|--0-0-8-7-7-12-12-8-7-5-5-3-3-8-7-2-2-3-2-0-0-
C#|--0-0-8-7-7-12-12-8-7-5-5-3-3-8-7-2-2-3-2-0-0-

INTRO DO COMEÇO 
D#|----------------------------------------------------------------------------------------------------
A#|----------------------------------------------------------------------------------------------------
F#|----------------------------------------------------------------------------------------------------
C#|---0----------0------0------0--------0-----------0-------0------0--------------0----0-----0--------0
G#|-0--0--0----0--0---0--0---0-0----0---0-------0---0--0---0--0---0---0-----0---0--0-0---0-0--0------0-
C#|0-----0--8-7-----7-----12-----12------8-7-5-------5------3-------3---8-7------7-----2---2---3-2-0--
Composição de Daron Malakian / Serj Tankian
Colaboração e revisão:
55.538 exibições
    • ½ Tom
    • A
    • Bb
    • B
    • C
    • Db
    • D
    • Eb
    • E
    • F
    • F#
    • G
    • Ab
  • Adicionar à lista

    0 comentários

    Ver todos os comentários

    Conseguiu tocar?

    31 Tocaram 0 Ainda não

    Grave um vídeo tocando Holy Mountain e nos envie!

    00:00 / 00:00
    Outros vídeos desta música
    Repetir Qualidade Automático
    Outros vídeos desta música
    00:00 / 00:00
    Automático

    Cifra Club Pro

    Aproveite o Cifra Club com benefícios exclusivos e sem anúncios
    Cifra Club Pro
    Aproveite o Cifra Club com benefícios exclusivos e sem anúncios
    OK