Notificações Amigos pendentes

      System of a Down

      Radio/Video

      162.010 exibições
      Tom: C#
      
      Afinaçãp: D#-A#-F#-C#-G#-C# (padrão: e-B-G-D-A-E)
      
      
      Intro 2x (Clean):
      
      
      D#|---7----9----11---11---11-12-9---9---9-11-7---7---7-|
      A#|----------------------------------------------------|
      F#|----------------------------------------------------|
      C#|-6---xx8--89----9----9---------8---8--------6---6---|
      G#|----------------------------------------------------|
      C#|----------------------------------------------------|
      
      
      D#|-----7----9----11---11---11-12-10-10---10-----------|
      A#|----------------------------------------------------|
      F#|----------------------------------------------------|
      C#|-xx6---68---89----9----9---------8---8----9-8-6-4-3-|
      G#|----------------------------------------------------|
      C#|----------------------------------------------------|
      
      
      Refrão 2x (Distorção):
      
      
      D#|-----------------------------------------------------|
      A#|-----------------------------------------------------|
      F#|---------------------------------------------9-9-7~--|
      C#|-6-6---8-8---9~--10-10-8~----6-6---8-8---9~--9-9-7~--|
      G#|-6-6---8-8---9~--10-10-8~----6-6---8-8---9~--7-7-5~--|
      C#|-6-6---8-8---9~--10-10-8~----6-6---8-8---9~----------|
      
      
      Finaliza o Refrão (Distorção):
      
      D#|------------|
      A#|------------|
      F#|-9-8-6-4-3--|
      C#|-9-8-6-4-3--|
      G#|-7-6-4-2-1--|
      C#|------------|
      
      
      Verso - Clean (Trocar o acorde no final de cada verso):
      
      
      D#|-4-4-4-4-4-4-4-4--2-2-2-2-2-2-2-2--|
      A#|-4-4-4-4-4-4-4-4--2-2-2-2-2-2-2-2--|
      F#|-4-4-4-4-4-4-4-4--3-3-3-3-3-3-3-3--| 
      C#|-6-6-6-6-6-6-6-6--4-4-4-4-4-4-4-4--|
      G#|-6-6-6-6-6-6-6-6--4-4-4-4-4-4-4-4--|
      C#|-----------------------------------|
      
      
      (Clean)
      
      D#|------------------------------------------|
      A#|----------9/11-9--------------9/11-9------|
      F#|-/8-4-9-8--------9-8--6-3-9-8--------9-8--| x2
      C#|------------------------------------------|
      G#|------------------------------------------|
      C#|------------------------------------------|
      
      
      Refrão 2x (Distorção):
      
      
      D#|-----------------------------------------------------|
      A#|-----------------------------------------------------|
      F#|---------------------------------------------9-9-7~--|
      C#|-6-6---8-8---9~--10-10-8~----6-6---8-8---9~--9-9-7~--|
      G#|-6-6---8-8---9~--10-10-8~----6-6---8-8---9~--7-7-5~--|
      C#|-6-6---8-8---9~--10-10-8~----6-6---8-8---9~----------|
      
      
      Finaliza o Refrão (Distorção):
      
      D#|------------|
      A#|------------|
      F#|-9-8-6-4-3--|
      C#|-9-8-6-4-3--|
      G#|-7-6-4-2-1--|
      C#|------------|
      
      
      Verso - Clean (Trocar o acorde no final de cada verso):
      
      
      D#|-4-4-4-4-4-4-4-4--2-2-2-2-2-2-2-2--|
      A#|-4-4-4-4-4-4-4-4--2-2-2-2-2-2-2-2--|
      F#|-4-4-4-4-4-4-4-4--3-3-3-3-3-3-3-3--| 
      C#|-6-6-6-6-6-6-6-6--4-4-4-4-4-4-4-4--|
      G#|-6-6-6-6-6-6-6-6--4-4-4-4-4-4-4-4--|
      C#|-----------------------------------|
      
      
      (Clean)
      
      D#|------------------------------------------|
      A#|----------9/11-9--------------9/11-9------|
      F#|-/8-4-9-8--------9-8--6-3-9-8--------9-8--| x2
      C#|------------------------------------------|
      G#|------------------------------------------|
      C#|------------------------------------------|
      
      
      Refrão 3:
      
      D#|---7----9----11-----------------7----9----11-----------|
      A#|-------------------------------------------------------|
      F#|-----------------------------------------------7-7-5~--|
      C#|-6---xx8--89------10-10-8~----6---xx8--89------7-7-5~--|
      G#|------------------10-10-8~---------------------7-7-5~--|
      C#|------------------10-10-8~-----------------------------|
         |_______________|            |_______________|          Clean
                          |________|                   |______|  Dist.
      
      
      Verso (Pré-solo)
      
      D#|-4-4--4---4-4--4---4-4--4---4-4--4-|
      A#|-4-4--4---4-4--4---4-4--4---4-4--4-|
      F#|-4-4--4---4-4--4---4-4--4---4-4--4-| 
      C#|-6-6--6---6-6--6---6-6--6---6-6--6-|
      G#|-6-6--6---6-6--6---6-6--6---6-6--6-|
      C#|-----------------------------------|
      
      
      D#|-2-2--2---2-2--2---2-2--2---2-2--2--|
      A#|-2-2--2---2-2--2---2-2--2---2-2--2--|
      F#|-3-3--3---3-3--3---3-3--3---3-3--3--| 
      C#|-4-4--4---4-4--4---4-4--4---4-4--4--|
      G#|-4-4--4---4-4--4---4-4--4---4-4--4--|
      C#|------------------------------------|
      
      
      Solo 2x (pt. 1):
      
      D#|---------------------------------------|
      A#|---------------------------------------|
      F#|-8-9-8~--8-9-8~--8-9-11--11--11-11-9-8-|
      C#|---------------------------------------|
      G#|---------------------------------------|
      C#|---------------------------------------|
      
      
      D#|--------------------------------------|
      A#|--------------------------------------|
      F#|-9-8-6-6~--6-6-4-3~--3-4-6^6--6-4-3^3-|
      C#|--------------------------------------|
      G#|--------------------------------------|
      C#|--------------------------------------|
      
      
      pt. 2 (2x):
      
      D#|---------------------------------------------------|
      A#|---------------------------------------------------|
      F#|-3-3-3--4-3-1-1-1--4-3-1-1-1--4-3-1-1-1--4-3-1-1-1-| 
      C#|---------------------------------------------------|
      G#|---------------------------------------------------|
      C#|---------------------------------------------------|
      
      
      D#|---------------------------------------|
      A#|---------------------------------------|
      F#|-6-4-3-3-3--6-4-3-3-3--6-4-3-3-3--6-4--| 
      C#|---------------------------------------|
      G#|---------------------------------------|
      C#|---------------------------------------|
      
      
      pt. 3 (2x):
      
      
      D#|-----------------------------------------|
      A#|----------9/11-9--------------9/11-9-----|
      F#|-/8-4-9-8--------9-8--6-3-9-8--------9-8-| 
      C#|-----------------------------------------|
      G#|-----------------------------------------|
      C#|-----------------------------------------|
      
      
      pt. 4 (Obs.: tocar a mesma nota com velocidade maior 
      antes de mudar de casa)
      
      D#|-11-12-12/14--12-11-9-11-11/12-11-9-|
      A#|------------------------------------|
      F#|------------------------------------|
      C#|------------------------------------|
      G#|------------------------------------|
      C#|------------------------------------|
      
      
      D#|-11-12-12/14--12-11--18-19-21-21^^-|
      A#|-----------------------------------|
      F#|-----------------------------------|
      C#|-----------------------------------|
      G#|-----------------------------------|
      C#|-----------------------------------|
      
      
      Refrão (Distorção):
      
      
      D#|-----------------------------------------------------|
      A#|-----------------------------------------------------|
      F#|---------------------------------------------9-9-7~--|
      C#|-6-6---8-8---9~--10-10-8~----6-6---8-8---9~--9-9-7~--|
      G#|-6-6---8-8---9~--10-10-8~----6-6---8-8---9~--7-7-5~--|
      C#|-6-6---8-8---9~--10-10-8~----6-6---8-8---9~----------|
      
      
      D#|----------------|
      A#|----------------|
      F#|----------------| 
      C#|----------------|
      G#|--11\\\\\\\\\\--|
      C#|----------------|
      
      
      D#|-----------------------------------------------------|
      A#|-----------------------------------------------------|
      F#|---------------------------------------------9-9-7~--|
      C#|-6-6---8-8---9~--10-10-8~----6-6---8-8---9~--9-9-7~--|
      G#|-6-6---8-8---9~--10-10-8~----6-6---8-8---9~--7-7-5~--|
      C#|-6-6---8-8---9~--10-10-8~----6-6---8-8---9~----------|
      
      
      Final:
      
      D#|------------------------------------|
      A#|------------------------------------|
      F#|-9-8-6-4-3--------------------------|
      C#|-9-8-6-4-3--6666666666666666666---6-|
      G#|-7-6-4-2-1--6666666666666666666---6-|
      C#|------------6666666666666666666---6-|
      
        Composição: Daron MalakianColaboração e revisão:
        • Flavio
        • João Victor
        • Eduardo
        • matheusroldao
        • +2

        Comentários 21

        140 .
        • Weslley Weslley: Em 19/12/2015 18:39

          quero o video cirfra club

        • biel.best biel.best: Em 06/02/2015 14:32

          Faz uma Radio/Video aula, mesmo sendo ñ sendo dificil seria mt mais facil com video aula

        • marcelo.vagner.360 marcelo.vagner.360: Em 17/09/2014 19:47

          o solo ta errado

        • stephano.daniel.58 stephano.daniel.58: Em 13/04/2014 12:09

          Por favor façam uma video aula dessa música, to com muita dificuldade pra tocar ella, pf me ajudem!

        • CurtMansom1997 CurtMansom1997: Em 04/09/2013 12:12

          Radio/Video aula kkkk

        • alan10souza alan10souza: Em 08/04/2013 23:49

          essa musica e foda

        • brenolpzista brenolpzista: Em 24/02/2013 12:58

          Galera se vcs querem a video aula da musica vai em pedir cifras... SIMPLES

          • Eduardo Eduardo: Em 09/01/2014 17:56

            Só serve para cifras e não para video aulas

        • mr.wagner mr.wagner: Em 10/08/2012 17:06

          Ei galera se quiserem mais video aulas de system me add no face e entrem no meu grupo, tem que ficar mais democratico essa merda!

        • bioz bioz: Em 02/08/2012 18:11

          Videoo Aulaa aew musica muito boaa!

        140 cancelar

        conseguiu tocar?

        • •••
        Eduardo Gomes268.499 visualizações
          ver covers de outras músicas »
          0:00 / 0:00

          Capítulos

            2 versões de baixo exibições contribuição e correção
            1 versão de Guitar Proformatodownloadscontribuição
            play/pausefechar subir/descer velocidade
            6ª corda E5ª corda A4ª corda D3ª corda G2ª corda B1ª corda E
              acordes
              publicidade
              fechar
              ok