Cifra Club

Black Friday Cifra Club

Science

System Of a Down

Cifra: Principal (violão e guitarra)
tom: A
afinação: (C,G,C,F,A,D)
 Verso:1
D|---------------------------------|
A|---------------------------------|
F|---------------------------------| 
C|-----0-0-000-0-0-000-0-0-000-0-0-|2x
G|---------------------------------|
C|---------------------------------|
      
Verso:2
D|---------------------------------|
A|---------------------------------|
F|---------------------------------|
C|-----0-0-000-0-0-----0-0-000-0-0-|
G|---------------------------------|
C|---------------------------------|

Verso:3
D|---------------------------------|
A|---------------------------------|
F|---------------------|
C|-----0-0-----0-0-----0-0-----0-0-|
G|---------------------------------|
C|---------------------------------|
     
Verso:4                   Verso:5
D|-----------------|    |-----------------|
A|-----------------|    |-----------------|
F|-7---------------|    |-----------------|
C|-x--0-0-0-0-0-0--|3x  |-----------------|
G|-5--0-0-0-0-0-0--|    |------7-8-10-8-7-|
C|-0---0-0-0-0-0-0-|    |-8--7------------|
Repete Verso:4
Repete Verso:5     

Verso:6
D|--------------------------------|
A|--------------------------------|
F|-8------------------------------|2x
C|-x------------------------------|
G|-6--5-5-555-5-5-555-5-5-555-5-5-|
C|--------------------------------|
Verso:7
D|------------------------------|
A|------------------------------|
F|-8--------------8-------------|
C|-x--------------x-------------|
G|-6--5-5-555-5-5-6-5-5-555-5-5-|
C|------------------------------|
Verso:8
D|-------------------------|
A|-------------------------|
F|-8-----8-----8-----8-----|
C|-x-----x-----x-----x-----|
G|-6-5-5-6-5-5-6-5-5-6-5-5-|
C|-------------------------|
Repete Verso:1
Repete Verso:2  
Repete Verso:3
Repete Verso:4
Repete Verso:5
Repete Verso:4
Repete Verso:5
Repete Verso:6
Repete Verso:2
Repete Verso:3
Repete Verso:4
Repete Verso:5
Repete Verso:4
Repete Verso:5
Verso:9
D|----------------------------------------------|
A|----------------------------------------------|
F|----------------------------------------------|
C|-0---------2---------3------------------------|2x
G|-0---------2---------3-------------7-8-10-8-7-|
C|-0---------2---------3--------8--8------------|

D|------------------------------8----------|
A|-----8-10-----10-11-----10-11---11-10-11-|
F|---7--------7---------7------------------|
C|-0--------0---------0--------------------|3x
G|-0--------0---------0--------------------|
C|-0--------0---------0--------------------|

D|-----------------------------|
A|------8-10~~--8-7-7-7h8-7----|
F|-7--7---------------------7-9|
C|-----------------------------|
G|-----------------------------|
C|-----------------------------|

D|--------------------------------8-------|
A|------8-10---11-8-10-------8-10---11-10-|
F|-7--7-----------------7--7--------------|
C|----------------------------------------|
G|----------------------------------------|
C|----------------------------------------|

D|------------------------------------------------|
A|------8-10---11-8-10----8-10~~--8-7-7-7h8-7-----|
F|-7--7-----------------7---------------------7-9-| 
C|------------------------------------------------|  
G|------------------------------------------------|
C|------------------------------------------------|

D|-----------------------------------|
A|----8-10~~-11-8-10-11-8-10-11-8-10-|
F|--7--------------------------------|
C|-----------------------------------|
G|-----------------------------------|
C|-----------------------------------|

Repete Verso:7 
Repete Verso:3
Repete Verso:4
Repete Verso:5
Repete Verso:4
Repete Verso:5

D|---------------------------------------------------------------------|
A|---------------------------------------------------------------------|
F|---------------------------------------------------------------------|
C|-7----------------9----------------10--------------------------------|
G|-5-555-555-555-55-7-777-777-777-77-8--888-888-888-88------7-8-10-8-7-|2x
C|-----------------------------------------------------8--8------------|

D|----------------------------------------------|  |---|
A|----------------------------------------------|  |---|
F|----------------------------------------------|  |---|
C|-0---------2---------3------------------------|2x|-0-|
G|-0---------2---------3-------------7-8-10-8-7-|  |-0-|
C|-0---------2---------3--------8--7------------|  |-0-|



Letra:

Making two possibilities a reality,
Predicting the future of things we all know,
Fighting off the diseased programming
Of centuries, centuries, centuries, centuries.

Science fails to recognize the single most
Potent element of human existence
letting the reigns go to the unfolding
Is faith, faith, faith, faith.

Science has failed our world
Science has failed our Mother Earth.

Science fails to recognize the single most
Potent element of human existence
letting the reigns go to the unfolding
Is faith, faith, faith, faith.

Science has failed our world
Science has failed our Mother Earth.
Spirit-moves-through-all-things
Spirit-moves-through-all-things
Spirit-moves-through-all-things,
Spirit-moves-through-all-things
Spirit-moves-through-all-things
Spirit-moves-through-all-things.

letting the reigns go to the unfolding
Is faith, faith, faith, faith
letting the reigns go to the unfolding
Is faith, faith, faith, faith.

Science has failed our world
Science has failed our Mother Earth.

Spirit-moves-through-all-things
Spirit-moves-through-all-things
Spirit-moves-through-all-things,
Spirit-moves-through-all-things
Spirit-moves-through-all-things
Spirit-moves-through-all-things
Spirit-moves-through-all-things
Spirit-moves-through-all-things
Spirit-moves-through-all-things,
Spirit-moves-through-all-things
Spirit-moves-through-all-things
Spirit-moves-through-all-things
Science has failed our Mother Earth.
00:00 / 00:00
Outros vídeos desta música
Repetir
Outros vídeos desta música
Composição de Daron Malakian / Serj Tankian
37.292 exibições
    • ½ Tom
    • A
    • Bb
    • B
    • C
    • Db
    • D
    • Eb
    • E
    • F
    • F#
    • G
    • Ab
  • Adicionar à lista

    0 comentários

    Ver todos os comentários

    Conseguiu tocar?

    8 Tocaram 0 Ainda não

    Grave um vídeo tocando Science e nos envie!

    Entre para oCifra Club PRO

    Tenha acesso a benefícios exclusivos no App e no Site

    • Chega de anúncios

    • Prioridade de compra em lançamentos

    • Mais recursos no app do Afinador

    • Atendimento Prioritário

    • Descontos nos produtos Cifra Club

    • Ajude a produzir mais conteúdo

    00:00 / 00:00

    Cifra Club Pro

    Aproveite o Cifra Club com benefícios exclusivos e sem anúncios
    Cifra Club Pro
    Aproveite o Cifra Club com benefícios exclusivos e sem anúncios
    OK