Cifra Club

Soldier Side (Intro)

System of a Down

Cifra: Principal
exibições 97.518
Tom: F
Intro:

E|-----------------------------------------|
B|-----------------------------------------|
G|-2---2-3-2-1---1-----3-5/7\5-3-2---2-----|
D|-----------------------------------------|
A|-0---------0-----------------------------|
D|-3-3-------2-2---2-5-------------0---0---|

E|-----------------------------------------|
B|---------------------2---2-3/5-5---------|
G|-1---1-------1---------------------------|
D|-0-------2---------2---2-----------------|
A|-----------------0-----------------------|
D|-2-2---2---2---2-----------------0-------|

Verso:

E|------------------------------------------------------------------|
B|----------------------------------------------------2---2-3-5-5---|
G|----2------1--------3------2--------1-------1---------------------|
D|-----------------------------0----------2---------2---2-----------|
A|------------------------------------------------0---------------0-|
D|-3----3-2----2-2-5----5-0------0-2----2---2---2-----------------0-|

E|------------------------------------------------------------------|
B|----------------------------------------------------2---2-3-5-5---|
G|----2------1--------3------2--------1-------1---------------------|
D|-----------------------------0----------2---------2---2-----------|
A|------------------------------------------------0---------------0-|
D|-3----3-2----2-2-5----5-0------0-2----2---2---2-----------------0-|

Final:

E|-------------------------------------------------------------------------------|
B|--------------------------11/13-14\13-11-10---10---9---9-------9------------10-|
G|-10---10-11-10-9---9------12/14-15\14-12-------------------9-------10---9------|
D|----------------------------------------------------------------------7---7----|
A|-8--8----------7-7---7-10-------------------8----8---7---7---7---7-0-----------|
D|-------------------------------------------------------------------------------|
Acordes para:
    Colaboração e revisão:

    0 comentários

      mostrar mais comentários

      Conseguiu tocar?

      23tocaram3ainda não

      Grave um vídeo tocando Soldier Side (Intro) e mande pra gente!

      00:00 / 00:00
      outros vídeos desta música
      repetirqualidadeautomática
      Outro vídeos desta música
        00:00 / 00:00
        automática
        OK