Sai De Casa

Taís Alvarenga

Composição de: Kaio Campadelli / Tais Alvarenga
tom: Bb (forma dos acordes no tom de A ) Capotraste na 1ª casa
    A                D               F#m             E              
E|------------------------------------------------------------------|
B|-2-2-2-2-2-2-2-2-2-2-2-2-2-2-2-2-2-2-2-2-2-2-2-2-2-2-2-2-2-2-2-2--|
G|-2-2-2-2-2-2-2-2-2-2-2-2-2-2-2-2-2-2-2-2-2-2-2-2-2-2-2-2-2-2-2-2--|
D|-----------------0------------------------------------------------|
A|-0-------------4--------------------------------------------------|
E|---------------------------------2---------------0-------------4--|

A                  D
Tanto faz e tanto fez
                F#m            E
Se já não temos mais os nossos 23
A          D
Pelo chão o que eu te dei
           F#m                       E7
Você quis razão e eu tinha só meu coração

    A                D               F#m             E              
E|------------------------------------------------------------------|
B|-2-2-2-2-2-2-2-2-2-2-2-2-2-2-2-2-2-2-2-2-2-2-2-2-2-2-2-2-2-2-2-2--|
G|-2-2-2-2-2-2-2-2-2-2-2-2-2-2-2-2-2-2-2-2-2-2-2-2-2-2-2-2-2-2-2-2--|
D|-----------------0------------------------------------------------|
A|-0-------------4--------------------------------------------------|
E|---------------------------------2---------------0-------------4--|

A       D
Sai de casa
              F#m                    E
Que a minha solidão já se cansou de mim
A       D
Vem depressa
           F#m                  E7
Que eu já não posso mais te esperar

    Bm              Bm/G#         Bm                E       E/F#
E|-----------------------------------------------------------------|
B|-3-3-3-3-3-3-3-3-3-3-3-3-3-3-3-3-3-3-3-3-3-3-3-3-0-0-0-0-0-0-0-0-|
G|-4-4-4-4-4-4-4-4-4-4-4-4-4-4-4-4-4-4-4-4-4-4-4-4-1-1-1-1-1-1-1-1-|
D|-4-4-4-4-4-4-4-4-4-4-4-4-4-4-4-4-4-4-4-4-4-4-4-4-2-2-2-2-2-2-2-2-|
A|-2-------------0---------------0-2-------------------------------|
E|-----------------4-------------------------------0-------2-------|

Bm                      Bm/G#
Onde foi que você andou?
Bm                            E            E/F#
Nosso bem maior é saber sonhar

     F#m             D               A               E               
E|------------------------------------------------------------------|
B|-2-2-2-2-2-2-2-2-2-2-2-2-2-2-2-2-2-2-2-2-2-2-2-2-2-2-2-2-2-2-2-2--|
G|-2-2-2-2-2-2-2-2-2-2-2-2-2-2-2-2-2-2-2-2-2-2-2-2-2-2-2-2-2-2-2-2--|
D|-----------------0------------------------------------------------|
A|---------------4---------------4-0-------------4------------------|
E|-2-----------------------------------------------0-------------4--|

F#m                       D
Amor, existe tanto pra gente
                   A
Por que será que você
                              E
Não quer saber o que eu tenho pra te dar?
F#m                        D
Ai, é que eu só tenho o presente
                    A
E mesmo assim somos nós
                           E
O mesmo sol todo dia a me acordar
Página 1 / 1

Letras e título
Acordes e artista

resetar configurações
OK