Esquema Preferido (part. DJ Ivis)

Tarcísio do Acordeon

Composição de: Dj Ivis / Mr. Sammy / Valter Danadão
tom: Dm
[Intro] Dm  Bb  F  C

[Tab - Solo]
 
Parte 1 de 4
E|-12-13-13-13-12-10--12-13-13-13-12-10-----|
B|------------------------------------------|
G|------------------------------------------|
D|------------------------------------------|
A|------------------------------------------|
E|------------------------------------------|

Parte 2 de 4
E|-8-10-10-10-8-----8-10-10-10-8------------|
B|--------------11---------------11---------|
G|------------------------------------------|
D|------------------------------------------|
A|------------------------------------------|
E|------------------------------------------|
 
Parte 3 de 4
E|------------------------------------------|
B|-8-10-10-10-8-----8-10-10-10-8------------|
G|--------------10---------------10---------|
D|------------------------------------------|
A|------------------------------------------|
E|------------------------------------------|

Parte 4 de 4
E|------------------------------------------|
B|------------------------------------------|
G|-9-9-10-12-9-10-12-9-10-12-10-9-10--------|
D|-----------------------------------12-----|
A|------------------------------------------|
E|------------------------------------------|

[Primeira Parte]

Dm                           Bb   
   Tá vendo aí, ela já tá falando
                                 F
Que tá com saudades, tá me procurando
         C
Daqui a pouco ela tá encostando
Dm                               Bb
   Sabe que sou louco e sem coração
                                F
Mas quando ela liga eu dou atenção
          C
Eu mando logo a localização
 Bb                        C
Hoje vai ter festa no colchão

[Refrão]

     Dm                                Bb
Ela roda a cidade inteira pra ficar comigo
                                  F
Porque eu sou o seu esquema preferido
                         C
Eu sou seu esquema preferido
        Dm                                    Bb
Ela despensa a balada, as amigas pra ficar comigo
                                  F
Porque eu sou o seu esquema preferido
                         C
Eu sou seu esquema preferido

[Solo] Dm  Bb  F  C 

[Tab - Solo]

Parte 1 de 4
E|-12-13-13-13-12-10--12-13-13-13-12-10-----|
B|------------------------------------------|
G|------------------------------------------|
D|------------------------------------------|
A|------------------------------------------|
E|------------------------------------------|

Parte 2 de 4
E|-8-10-10-10-8-----8-10-10-10-8------------|
B|--------------11---------------11---------|
G|------------------------------------------|
D|------------------------------------------|
A|------------------------------------------|
E|------------------------------------------|

Parte 3 de 4
E|------------------------------------------|
B|-8-10-10-10-8-----8-10-10-10-8------------|
G|--------------10---------------10---------|
D|------------------------------------------|
A|------------------------------------------|
E|------------------------------------------|

Parte 4 de 4
E|------------------------------------------|
B|------------------------------------------|
G|-9-9-10-12-9-10-12-9-10-12-10-9-10--------|
D|-----------------------------------12-----|
A|------------------------------------------|
E|------------------------------------------|

[Primeira Parte]

Dm                           Bb   
   Tá vendo aí, ela já tá falando
                                 F
Que tá com saudades, tá me procurando
         C
Daqui a pouco ela tá encostando
Dm                               Bb
   Sabe que sou louco e sem coração
                                F
Mas quando ela liga eu dou atenção
          C
Eu mando logo a localização
 Bb                        C
Hoje vai ter festa no colchão

[Refrão]

     Dm                                Bb
Ela roda a cidade inteira pra ficar comigo
                                  F
Porque eu sou o seu esquema preferido
                         C
Eu sou seu esquema preferido
        Dm                                    Bb
Ela despensa a balada, as amigas pra ficar comigo
                                  F
Porque eu sou o seu esquema preferido
                         C
Eu sou seu esquema preferido

     Dm                                Bb
Ela roda a cidade inteira pra ficar comigo
                                  F
Porque eu sou o seu esquema preferido
                         C
Eu sou seu esquema preferido
        Dm                                    Bb
Ela despensa a balada, as amigas pra ficar comigo
                                  F
Porque eu sou o seu esquema preferido
                         C
Eu sou seu esquema preferido

[Final] Dm  Bb  F  C
        Dm  Bb  F  C  Dm

[Tab - Solo]

Parte 1 de 8
E|-12-13-13-13-12-10--12-13-13-13-12-10-----|
B|------------------------------------------|
G|------------------------------------------|
D|------------------------------------------|
A|------------------------------------------|
E|------------------------------------------|

Parte 2 de 8
E|-8-10-10-10-8-----8-10-10-10-8------------|
B|--------------11---------------11---------|
G|------------------------------------------|
D|------------------------------------------|
A|------------------------------------------|
E|------------------------------------------|

Parte 3 de 8
E|------------------------------------------|
B|-8-10-10-10-8-----8-10-10-10-8------------|
G|--------------10---------------10---------|
D|------------------------------------------|
A|------------------------------------------|
E|------------------------------------------|

Parte 4 de 8
E|------------------------------------------|
B|------------------------------------------|
G|-9-9-10-12-9-10-12-9-10-12-10-9-10--------|
D|------------------------------------------|
A|------------------------------------------|
E|------------------------------------------|

Parte 5 de 8
E|-12-13-13-13-12-10--12-13-13-13-12-10-----|
B|------------------------------------------|
G|------------------------------------------|
D|------------------------------------------|
A|------------------------------------------|
E|------------------------------------------|

Parte 6 de 8
E|-8-10-10-10-8-----8-10-10-10-8------------|
B|--------------11---------------11---------|
G|------------------------------------------|
D|------------------------------------------|
A|------------------------------------------|
E|------------------------------------------|

Parte 7 de 8
E|------------------------------------------|
B|-8-10-10-10-8-----8-10-10-10-8------------|
G|--------------10---------------10---------|
D|------------------------------------------|
A|------------------------------------------|
E|------------------------------------------|

Parte 8 de 8
E|------------------------------------------|
B|------------------------------------------|
G|-9-9-10-12-9-10-12-9-10-12-10-9-10--------|
D|-----------------------------------12-----|
A|------------------------------------------|
E|------------------------------------------|

Página 1 / 1

Letras e título
Acordes e artista

resetar configurações
OK