Cifra Club

I Walk Alone

Tarja

Cifra: Principal
exibições 13.654
Tom: G#
Intro: Fm  C

E|---1--------1-0----------|---1--------1-0----------|
B|-----1----------1-0------|-----1----------1-0------|
G|--------1------------1---|--------1------------1---|
D|-------------------------|-------------------------|
A|-------------------------|-------------------------|
E|-------------------------|-------------------------|

E|---1--------1-0----------|---1--------1-0----------|
B|-----1----------1-0------|-----1----------1-0------|
G|--------1------------1---|--------1------------1---|
D|-------------------------|-----------------------1-|
A|-------------------------|-------------------------|
E|-------------------------|-------------------------|

     Fm - C
Put all your angels on the edge
Keep all the roses, I'm not dead
I left a thorn under your bed

 C#
I'm never gone
E|---------------------------------------------|
B|---------------------------------------------|
G|---------------------------------------------|
D|---------------------------------------------|
A|------------------------1--------------------|
E|-1----1-4----4-3-----3-----------------------|

     Fm -C
Go tell the world I'm still around
I didn't fly, I'm coming down
you are the wind, the only sound

 Fm            C
Whisper to my heart
      G#           Bm
when hope is torn apart
    C           C#
and no one can save you

Fm       C#
I walk alone
Bm           Eb
Every step I take
       C  C#  G# Eb
I walk alone

Fm         C#
My winter storm
Bm          Eb
Holding me awake
           C  C#
It's never gone
C    G  E     C#
When I walk alone

    Fm  -C
Go back to sleep forever more
Far from your fools and lock the door
They're all around and they'll make sure

 Fm                C
You don't have to see
     G#              Bm
What I turned out to be
 C          C#
no one can help you

Fm       C#
I walk alone
Bm            Eb
Every step I take
        C C#
I walk alone

Fm         C#
My winter storm
Bm          Eb
Holding me awake
            C C#
It's never gone
C    G  E    C#
When I walk alone

Fm - G - G# - Bm - C

(Bridge)
Bm             G#
Waiting up in heaven
       G             C
I was never far from you
Bm              G#               G
Spinning down I felt your ever move

Fm       C#
I walk alone
Bm            Eb
Every step I take
        C C#
I walk alone

Fm         C#
My winter storm
Bm          Eb
Holding me awake
            C C#
It's never gone
C    G  E    C#
When I walk alone
Acordes para:
    Composição: Anders Wollbeck / Harry Sommerdahl / Mattias LindblomColaboração e revisão:
    • Roberto Soares
    • Ingrith Sales

    0 comentários

      mostrar mais comentários

      Conseguiu tocar?

      2tocaram0ainda não

      Grave um vídeo tocando I Walk Alone e mande pra gente!

      00:00 / 00:00
      outros vídeos desta música
      repetirqualidadeautomática
      Outro vídeos desta música
        00:00 / 00:00
        automática
        OK