Cifra Club

No Meu Coração Você Vai Sempre Estar

Tarzan

Cifra: Principal (violão e guitarra)
exibições 19.586
Tom: F# (forma dos acordes no tom de F) Capotraste na 1ª casa
[Intro]  F

[TAB - Intro] 2x
   F
E|-1----------------------------------------|
B|-1----------------------------------------|
G|-2----------0-0-0h2-0---------------------|
D|-3--------------------3-0-----------------|
A|-3-3-3-3--3-3---3---3-----3---------------|
E|-1-1-1-1--1-1---1---1---------------------|

[Primeira parte]

F
  Não tenha medo, pare de chorar

Me dê a mão, venha cá
Bb9
    Vou proteger-te de todo mal
Gm                    C9
   Não há razão pra chorar
F                  C     F
  No seu olhar eu posso ver
                      C     F
A força pra lutar e pra vencer
Bb9
    O amor nos une para sempre
Gm                      C  A7
   Não há razão pra chorar

[TAB - Primeira parte]

Parte 1 de 5
   F
E|-1----------------------------------------|
B|-1----------------------------------------|
G|-2-------------------------------0-0h2p0--|
D|-3-3-3-3--3-3-3-3--3-3-3-3-3-3-3---------3|
A|-3-3-3-3--3-3-3-3--3-3-3-3-3-3-3-3--------|
E|-1-1-1-1--1-1-1-1--1-1-1-1-1-1-1-1--------|
                                             
Parte 2 de 5
   Bb9               Gm       C9
E|-1-----------------3--------3-------------|
B|-1-----------------3--------3-------------|
G|-3-3-3-3--3-3-3-3--3--------5-5-5-5-------|
D|-3-3-3-3--3-3-3-3--5-5-5-5--5-5-5-5-------|
A|-1-1-1-1--1-1-1-1--5-5-5-5--3-3-3-3-------|
E|-------------------3-3-3-3----------------|

Parte 3 de 5 
   F        C    F             C    F
E|-1--------0----1-------------0----1-------|
B|-1--------1----1-------------1----1-------|
G|-2--------0----2-------------0----2-------|
D|-3-3-3-3--2-2--3-3--3-3-3-3--2-2--3-3-----|
A|-3-3-3-3--3-3--3-3--3-3-3-3--3-3--3-3-----|
E|-1-1-1-1-------1-1--1-1-1-1-------1-1-----|

Parte 4 de 5
   Bb9               Gm
E|-1-----------------3----------------------|
B|-1-----------------3----------------------|
G|-3-3-3-3--3-3-3-3--3----------------------|
D|-3-3-3-3--3-3-3-3--5-5-5-5----------------|
A|-1-1-1-1--1-1-1-1--5-5-5-5----------------|
E|-------------------3-3-3-3----------------|
Parte 5 de 5
   C          A7           
E|-0--0--0-0--0--0--0-0---------------------|
B|-1--1--1-1--2--2--2-2---------------------|
G|-0--0--0-0--0--0--0-0---------------------|
D|-2--2--2-2--2--2--2-2---------------------|
A|-3--3--3-3--0--0--0-0---------------------|
E|------------------------------------------|
   ↓  ↓  ↓ ↑  ↓  ↓  ↓ ↑

[Refrão]

      D          G
Pois no meu coração
   A      A/G      F#m 
Você vai sempre estar
   Bm          G           C   A
O meu amor contigo vai seguir

 D          G    
No meu coração
 A      A/G        F#m
Aonde quer que eu vá
   Bm              G     C  A  G  A
Você vai sempre estar aqui

[Segunda parte]

F                          C      F
  Por que não podem ver o nosso amor?
                      C    F 
Por que o medo, por que a dor?
Bb9
    Se as diferenças não nos separam
Gm                      C  A7
   Ninguém vai nos separar

[TAB - Segunda parte]

Parte 1 de 3 
   F        C    F
E|-1--------0----1-------------0----1-------|
B|-1--------1----1-------------1----1-------|
G|-2--------0----2-------------0----2-------|
D|-3-3-3-3--2-2--3-3--3-3-3-3--2-2--3-3-----|
A|-3-3-3-3--3-3--3-3--3-3-3-3--3-3--3-3-----|
E|-1-1-1-1-------1-1--1-1-1-1-------1-1-----|

Parte 2 de 3
   Bb9               Gm
E|-1-----------------3----------------------|
B|-1-----------------3----------------------|
G|-3-3-3-3--3-3-3-3--3----------------------|
D|-3-3-3-3--3-3-3-3--5-5-5-5----------------|
A|-1-1-1-1--1-1-1-1--5-5-5-5----------------|
E|-------------------3-3-3-3----------------|
Parte 3 de 3
   C         A7           
E|-0--0--0-0--0--0--0-0---------------------|
B|-1--1--1-1--2--2--2-2---------------------|
G|-0--0--0-0--0--0--0-0---------------------|
D|-2--2--2-2--2--2--2-2---------------------|
A|-3--3--3-3--0--0--0-0---------------------|
E|------------------------------------------|
   ↓  ↓  ↓ ↑  ↓  ↓  ↓ ↑

[Refrão]

   D          G      A      A/G      F#m
E no meu coração, você vai sempre estar
   Bm          G           C  A
O meu amor contigo vai seguir

[Terceira parte]
     G
Não deixe ninguém tentar lhe mostrar
       Em
Que o nosso amor não vai durar
  Bm           C
Eles vão ver, eu sei
       G
Pois quando o destino, vem nos chamar

  Em
Até separados é preciso lutar
  Bm           C
Eles vão ver, eu sei
     D        A
Nós vamos provar que

[Refrão]

 E          A
No meu coração
           B9     B9/A     G#m
Eu sei, você vai sempre estar
               C#m
Eu juro que o meu amor 
    A           D  B9
Contigo vai seguir

 E          A
No meu coração
 B9     B9/A       G#m
Aonde quer que eu vá
   C#m             A     D  B9
Você vai sempre estar aqui

[Quarta parte]

   A       E
Aqui para sempre
      A                 E           
Meu amor vai contigo, sempre contigo
       A
Basta fechar os olhos
      E
É só fechar os olhos
        A
Quando fechar olhos
             E
Vou estar aqui

[TAB - Quarta parte]

Parte 1 de 2
   A                 E
E|-0-----------------0----------------------|
B|-2-----------------0----------------------|
G|-2-2-2-2--2-2-2-2--1----------------------|
D|-2-2-2-2--2-2-2-2--2-2-2-2--2-2-2-2-------|
A|-0-0-0-0--0-0-0-0--2-2-2-2--2-2-2-2-------|
E|-------------------0-0-0-0--0-0-0-0-------|
Parte 2 de 2
   A                 E
E|-0-----------------0----------------------|
B|-2-----------------0----------------------|
G|-2-2-2-2--2-2-2-2--1----------------------|
D|-2-2-2-2--2-2-2-2--2----------------------|
A|-0-0-0-0--0-0-0-0--2----------------------|
E|-------------------0----------------------|
Acordes para:
    Composição: Ed Motta / Suely Franco Colaboração e revisão:
    • Caico Antunes
    • Natália Antoniazzi

    0 comentários

    mostrar mais comentários

    Conseguiu tocar?

    13 tocaram 0 ainda não

    Grave um vídeo tocando No Meu Coração Você Vai Sempre Estar e mande pra gente!

    00:00 / 00:00
    outros vídeos desta música
    repetir qualidade Automático
    Outros vídeos desta música
    00:00 / 00:00
    Automático
    Capítulos
    • Tocando a música
    • Apresentação / Equipamentos
    • Acordes da introdução
    • Tocando introdução
    • Dedilhado introdução
    • Acordes da primeira parte
    • Tocando primeira parte
    • Dedilhado primeira parte
    • Primeira Parte - Parte 1 de 5
    • Primeira Parte - Parte 2 de 5
    • Primeira Parte - Parte 3 de 5
    • Primeira Parte - Parte 4 de 5
    • Primeira Parte - Parte 5 de 5
    • Acordes do refrão
    • Tocando refrão
    • Ritmo do refrão
    • Dicas da segunda parte
    • Tocando segunda parte
    • Dedilhado segunda parte
    • Acordes terceira parte
    • Tocando terceira parte
    • Acordes da modução
    • Tocando trecho
    • Acordes quarta parte
    • Tocando quarta parte
    • Dedilhado quarta parte
    • Encerramento
    OK