Cifra Club

Aprenda

Love Story

Taylor Swift

Cifra: Versão 4 (violão e guitarra)
tom: A
(intro)  D9  A4  Bm  Asus4/G

-----0---------------------------------------   D9
-----3---------------------------------------
-----2---------------------------------------
-----4---------------------------------------
---------------------------------------------
---------------------------------------------

-----0---------------------------------------   A4
-----3---------------------------------------
-----2---------------------------------------
-----2---------------------------------------
---------------------------------------------
---------------------------------------------

-----2---------------------------------------   Bm
-----3---------------------------------------
-----4---------------------------------------
-----4---------------------------------------
-----2---------------------------------------
---------------------------------------------

-----0---------------------------------------   Asus4/G
-----3---------------------------------------
-----2---------------------------------------
-----5---------------------------------------
---------------------------------------------
---------------------------------------------

D9
We were both young when I first saw you
A4
I close my eyes and the flashback starts
Bm                                  Asus4/G
Im standing there on a balcony of summer air

D9
See the lights, See the party the ball gowns
A4
See you make your way through the crowd
          Bm
You say hello
           Asus4/G
Little did I know

      D9                       A4
That you were Romeo you were throwing pebbles
          Bm                       Asus4/G
And my daddy said stay away from Juliet
            D9
And I was crying on the staircase
  A4                      Bm
Begging you please don't go, and I said

e continua repetindo...

(refrão final)

E                         B
Marry me Juliet you'll never have to be alone
B
I love you and thats all I really know
C#
I talked to your dad go pick out a white dress
A4                B
Its a love story baby just say yes

(dedilhado)

------------0---0----------------------------   D9
--------------3--3---3-----------------------
-------2-----------2-------------------------
-----4---------------------------------------
---------------------------------------------
---------------------------------------------

------------0---0----------------------------   A4
--------------3--3---3-----------------------
-------2-----------2-------------------------
-----2---------------------------------------
---------------------------------------------
---------------------------------------------

------------0---0----------------------------   E7sus2
--------------3--3---3-----------------------
-------4-----------4-------------------------
-----4---------------------------------------
---------------------------------------------
---------------------------------------------

------------0---0----------------------------   Asus4/G
--------------3--3---3-----------------------
-------2-----------2-------------------------
-----5---------------------------------------
---------------------------------------------
---------------------------------------------
Composição de Taylor Swift
Colaboração e revisão:
  • Diego Cavalcanti
34.488 exibições
    • ½ Tom
    • A
    • Bb
    • B
    • C
    • Db
    • D
    • Eb
    • E
    • F
    • F#
    • G
    • Ab
  • Adicionar à lista

    0 comentários

    Ver todos os comentários

    Conseguiu tocar?

    0 Tocaram 0 Ainda não

    Grave um vídeo tocando Love Story e nos envie!

    00:00 / 00:00
    Outros vídeos desta música
    Repetir Qualidade Automático
    Outros vídeos desta música
    00:00 / 00:00
    Automático

    Cifra Club Pro

    Aproveite o Cifra Club com benefícios exclusivos e sem anúncios
    Cifra Club Pro
    Aproveite o Cifra Club com benefícios exclusivos e sem anúncios
    OK