Cifra Club

Aprenda

Love Story

Taylor Swift

Tab de baixo: Principal
Começa em: 0:32

G|----------------|----------------|----------------|----------------|
D|----------------|----------------|----------------|----------------|
A|5---------------|----------------|2---------------|0---------------|
E|----------------|3---------------|----------------|----------------|

0:48

G|----------------|----------------|----------------|----------------|
D|----------------|----------------|----------------|----------------|
A|--------0--00---|2--22---5--55---|5--55---0--00---|2--22-----------|
E|3--33-----------|----------------|----------------|--------3--33---|

1:05

G|----------------|----------------|----------------|----------------|
D|----------------|----------------|----------------|----------------|
A|5--55---5--55-5-|0--00---0--00-0-|2--22---2--22-2-|---------0--0-0-|
E|----------------|----------------|----------------|3--3-3----------|

1:22

G|----------------|----------------|----------------|----------------|----------------|
D|----------------|----------------|----------------|----------------|----------------|
A|5------55-------|5---5---5---5---|----------------|2---2---2---2---|0---0---0---0---|
E|----------------|----------------|3---3---3---3---|----------------|----------------|

1:41

G|----------------|----------------|----------------|----------------|
D|----------------|----------------|----------------|----------------|
A|--------0--00---|2--22---5--55---|5--55---0--00---|2--22-----------|
E|3--33-----------|----------------|----------------|--------3--33---|

1:57

G|----------------|----------------|----------------|----------------|
D|----------------|----------------|----------------|----------------|
A|5--55---5--55-5-|0--00---0--00-0-|2--22---2--22-2-|---------0--0-0-|
E|----------------|----------------|----------------|3--3-3----------|

2:13

G|----------------|----------------|----------------|----------------|
D|----------------|----------------|----------------|----------------|
A|5--55---5--55-5-|0--00---0--00-0-|2--22---2--22-2-|---------0--0-0-|
E|----------------|----------------|----------------|3--3-3----------|

2:30

G|----------------|----------------|----------------|----------------|
D|----------------|----------------|----------------|----------------|
A|5--55---5--55-5-|0--00---0--00-0-|2--22---2--22-2-|---------0--0-0-|
E|----------------|----------------|----------------|3--3-3----------|

2:48

G|----------------|----------------|----------------|----------------|
D|----------------|----------------|----------------|----------------|
A|2---------------|5-------0-------|2---------------|5-------0-------|
E|--------3-------|----------------|--------3-------|----------------|

3:04

G|----------------|----------------|----------------|----------------|
D|----------------|----------------|----------------|----------------|
A|5--55---5--55---|0--00---0--00-0-|2222222222222222|--------00000000|
E|----------------|----------------|----------------|33333333--------|

3:19

G|----------------|----------------|----------------|----------------|
D|----------------|----------------|----------------|----------------|
A|7--77---7--77-7-|2--22---2--22-2-|4--44---4--44-4-|0--0-0---2--2-2-|
E|----------------|----------------|----------------|----------------|

3:36

G|----------------|----------------|----------------|----------------|
D|----------------|----------------|----------------|----------------|
A|7--77---7--77-7-|2--22---2--22-2-|4--44---4--44-4-|0-0-0-0-0-0-0/7-|
E|----------------|----------------|----------------|----------------|


| /  slide up
| \  slide down
| h  hammer-on
| p  pull-off
| ~  vibrato
| +  harmonic
| x  Mute note
Composição de Taylor Swift
Colaboração e revisão:
  • Diego Cavalcanti
3.255 exibições

0 comentários

Ver todos os comentários

Conseguiu tocar?

1 Tocaram 0 Ainda não

Grave um vídeo tocando Love Story e nos envie!

00:00 / 00:00
Outros vídeos desta música
Repetir Qualidade Automático
Outros vídeos desta música
00:00 / 00:00
Automático

Cifra Club Pro

Aproveite o Cifra Club com benefícios exclusivos e sem anúncios
Cifra Club Pro
Aproveite o Cifra Club com benefícios exclusivos e sem anúncios
OK