Cifra Club

Menininha

Tche Garotos

Cifra: Principal
exibições 228.782
Tom: G
E|--3---5---7---7---5---5---3---5----------|
B|--*---*---*-------*---*---*---*----------|
G|--4---5---7---7---5---5---4---5----------|
D|-----------------------------------------|
A|-----------------------------------------|
E|-----------------------------------------|

E|--5---7----8---8---7--7----5---3---------|
B|--*---*----*---*---*--*----*---*---------|
G|--5---7----9---9---7--7----5---5---------|
D|-----------------------------------------|
A|-----------------------------------------|
E|-----------------------------------------|

E|--3---5---7---7---5---5---3---5----------|
B|--*---*---*-------*---*---*---*----------|
G|--4---5---7---7---5---5---4---5----------|
D|-----------------------------------------|
A|-----------------------------------------|
E|-----------------------------------------|

E|--5/7--5---3--3--------5/7---5---3--3----|
B|---*---*---*--*---------*----*---*--*----|
G|--5/7--5---4--4--------5/7---5---4--4----|
D|-----------------------------------------|
A|-----------------------------------------|
E|-----------------------------------------|

G/B                C9
Todos os dias na escola quando eu via você
G/B                C9
Meu coração batia forte eu nem sabia por que
G/B                C9
Eu era apenas um menino descobrindo a paixão
G/B                  C9                                    G/B
Eu te olhava todo o tempo e nem sabia a razão

Am7                                    G/B
Até que um dia seus olhos olharam os meus suas mãos na minha mão tocou
Am7                                  G/B
O primeiro beijo me fez entender o que eu sentia era amor
Am7                             G/B
Tudo parecia um sonho dentro de mim era só felicidade
Am                                       C
Ate que meu pai me falou: meu filho nos vamos pra outra cidade

   Am7             G/B
Cresci longe da menininha
             Am7             D
Eu nunca esqueci da minha menininha

(mantém " D ”)

G/B    Am7                    G/B      Am7
Ah...   Avisa que eu to voltando
                   G/B
Avisa que eu to chegando
                 C9
Eu voltei pra gritar
                        D9
Te amo te amo te amo te amo
G/B          Am7              G/B
Ah! Que saudade da minha menininha!
       Am7                  G/B
Que saudade da minha menininha!
       Am7                  G/B
Que saudade da minha menininha!
       Am7                  G/B
Que saudade da minha menininha!
Acordes para:

    0 comentários

      mostrar mais comentários

      Conseguiu tocar?

      16tocaram0ainda não

      Grave um vídeo tocando Menininha e mande pra gente!

      00:00 / 00:00
      outros vídeos desta música
      repetirqualidadeautomática
      Outro vídeos desta música
        00:00 / 00:00
        automática
        OK