Cifra Club

Head Over Heels

Tears For Fears

Cifra: Principal (violão e guitarra)
tom: D
[Intro] C  D4  C  D4  C  D4

[Riff]

E|-3-2-0---0----3-2-0---0-------------------|
B|-------3---1--------3---1-----------------|
G|------------------------------------------|
D|------------------------------------------|
A|------------------------------------------|
E|------------------------------------------|

[Guitarra]

E|------------------------------------------|
B|------------------------------------------|
G|-/9-7--/14-12-14-12-----------------------|
D|------------------------------------------|
A|------------------------------------------|
E|------------------------------------------|

E|------------------------------------------|
B|-13-12----10----12h13-12----10------------|
G|-------12----9-----------12----9----------|
D|------------------------------------------|
A|------------------------------------------|
E|------------------------------------------|

E|---------------17-15----------------------|
B|------------------------------------------|
G|-7/9-7--14-12-----------------------------|
D|------------------------------------------|
A|------------------------------------------|
E|------------------------------------------|

[Primeira Parte]

A9  A               C7M       C
    I wanted to be with you alone
A9  A                   C7M    C
    And talk about the weather
        A9        A                        
But traditions I can trace 
              C7M          C
Against the child in your face
A9       A               C7M  C
   Won't escape my attention
A9           A              
   You keep your distance 
        C7M       C
With a system of touch
A9  A               C7M  C
    And gentle persuasion
     A9        A               
I'm lost in admiration
         C7M           C
Could I need you this much
           A9         A                
Oh you're wasting my time 
            C7M       C
You're just,   just, just wasting time

[Refrão]

 G                         Em
Something happens and I'm head over heels
         G                 Em
I never find out 'til I'm head over heels
 G                         Em
Something happens and I'm head over heels
          Dm
Ah don't take my heart don't break my heart 

Don't don't don't throw it away

A9  A    C7M     C
      Throw it away
A9  A    C7M     C
      Throw it away

[Segunda Parte]

A9  A                  C7M         C
    I made a fire and watching it burn
A9  A                    C7M  C
    I thought of your future
     A9            A                        
With one foot in the past now just 
 C7M              C
How long will it last
     A9          A          C7M  C
No, no, no have you no ambition
    A9             A                      
My mother and my brothers
          C7M           C
Used to breathing clean air
A9  A                   C7M   C
    And dreaming I'm a doctor
      A9        A                
It's hard to be a man when 
           C7M         C
There's a gun in your hand
   A9  A    C7M  C
Oh I  feel      so

[Refrão]

 G                         Em
Something happens and I'm head over heels
         G                 Em
I never find out 'til I'm head over heels
 G                         Em
Something happens and I'm head over heels
          Dm
Ah don't take my heart don't break my heart 

Don't don't don't throw it away

[Terceira Parte]

[Riff]

E|-3-2-0---0----3-2-0---0-------------------|
B|-------3---1--------3---1-----------------|
G|------------------------------------------|
D|------------------------------------------|
A|------------------------------------------|
E|------------------------------------------|

C                D4
  And this is my    four leaf clover
C                                                            
I'm on the line, one open mind
           D4
This is my    four leaf clover
 C                                
La la la la la, la la la la la 
 D4
La la la la la la 
 C                                
La la la la la, la la la la la 
 D4
La la la la la la 

 C                                
La la la la la, la la la la la 
 D4
La la la la la la 
 C                                     
La la la la la, la la la la  
      D4
In my    mind's eye
C
One little boy, one little man, funny how
D5
   Time flies
Composição de Curt Smith / Roland Orzabal
Colaboração e revisão:
  • Thiago Almeida
85.528 exibições
    • ½ Tom
    • A
    • Bb
    • B
    • C
    • Db
    • D
    • Eb
    • E
    • F
    • F#
    • G
    • Ab
  • Adicionar à lista

    0 comentários

    Ver todos os comentários

    Conseguiu tocar?

    20 Tocaram 2 Ainda não

    Grave um vídeo tocando Head Over Heels e nos envie!

    00:00 / 00:00
    Outros vídeos desta música
    Repetir Qualidade Automático
    Outros vídeos desta música
    00:00 / 00:00
    Automático

    Cifra Club Pro

    Aproveite o Cifra Club com benefícios exclusivos e sem anúncios
    Cifra Club Pro
    Aproveite o Cifra Club com benefícios exclusivos e sem anúncios
    OK