Cifra Club

Aprenda

Pale Shelter

Tears For Fears

Tab de baixo: Principal
Tuning: EADG

Intro:

G|----------------------------------------------------|
D|----------------------------------------------------| (1x)
A|----------------------------------------------------|
E|---1--1--1--1--3--3--3--3--1--1--1--1--3--3--3--3---|

Chorus 1:

G|--------------------5-5--------|
D|-------------------------------| (3x)
A|-------------5-5--3------------|
E|---5-5--3-3--------------------|

G|----------------------------|
D|----------------------------| (1x)
A|-------------5---3---2--2---|
E|---5-5--3-3-----------------|

Verse 1:

G|----------------------------------------------------------------|
D|----------------------------------------------------------------| (1x)
A|----------------------------------------------------------------|
E|-----1--1--1--3--3--3--3--1--1--1--1--3--3--3--3--1--1--1--1----|

G|----------------|
D|----------------| (1x)
A|---5--5--5--5---|
E|----------------|

Chorus 2:

G|--------------------5-5--------|
D|-------------------------------| (3x)
A|-------------5-5--3------------|
E|---5-5--3-3--------------------|

G|----------------------------|
D|----------------------------| (1x)
A|-------------5---3---2--2---|
E|---5-5--3-3-----------------|

Verse 2:

G|----------------------------------------------------------------|
D|----------------------------------------------------------------| (1x)
A|----------------------------------------------------------------|
E|---1--1--1--1--3--3--3--3--1--1--1--1--3--3--3--3--1--1--1--1---|

G|----------------|
D|----------------| (1x)
A|---5--5--5--5---|
E|----------------|

Chorus 3:

G|--------------------5-5--------|
D|-------------------------------| (3x)
A|-------------5-5--3------------|
E|---5-5--3-3--------------------|

G|---------------------------|
D|---------------------------| (1x)
A|-------------5---3---2--2--|
E|---5-5--3-3----------------|


Verse 3: (Bass solo)


G|-----5---10--9---7---5---10---9---7---|
D|--------------------------------------|
A|---3---3/--7---5---3---3/---7---5-----|
E|--------------------------------------|
                                            (2x)
G|-----7---12--9---7---7---12---9---7---|
D|--------------------------------------|
A|---5---5/--7---5---5---5/---7---5-----|
E|--------------------------------------|


G|-----3---9---7---5---3---9---7---5---|
D|-------------------------------------|
A|---1---1/--5---3---1---3/---5---3----|
E|-------------------------------------|
                                           (2x)
G|----------4---2------------4---2-------|
D|-----5------------5---5------------5---|
A|--------2---0------------2---0---------|
E|---3------------3---3------------3-----|


G|-----7---9---10--9---7---5------------|
D|------------------------------3---3---| (1x)
A|---5---7---8---7---5---3--------------|
E|----------------------------1---3-----|

Chorus 4:

G|--------------------5-5--------|
D|-------------------------------| (3x)
A|-------------5-5--3------------|
E|---5-5--3-3--------------------|

G|---------------------------|
D|---------------------------| (1x)
A|-------------5---3---2--2--|
E|---5-5--3-3----------------|

Outro (There is varitation with this regarding the timing of the fret G5 & G7)

G|--------------------------------------5-5---------------|
D|--------------------------------------------------------| 
A|---------------5--5--5--5--3--3--3--3-------------------|
E|---1--1--1--1------------------------------3--3--3--3---|
                                                             (3x)
G|----------------------7------------5-5---5-5------------|
D|--------------------------------------------------------| 
A|---------------5--5--5--5--3--3--3----3-----------------|
E|---1--1--1--1------------------------------3--3--3--3---|

G|----------------------7------------5-5---5-5---------------|
D|-----------------------------------------------------------| 
A|---------------5--5--5--5--3--3--3----3--------------------|
E|---1--1--1--1------------------------------3--3--3--3--1---|




   
| /  slide up
| \  slide down
| h  hammer-on
| p  pull-off
| ~  vibrato
| +  harmonic
| x  Mute note
===============================================================================
Composição de Curt Smith / Roland Orzabal
Colaboração e revisão:
  • Gabriel Leite
244 exibições

0 comentários

Ver todos os comentários

Conseguiu tocar?

0 Tocaram 0 Ainda não

Grave um vídeo tocando Pale Shelter e nos envie!

00:00 / 00:00
Outros vídeos desta música
Repetir Qualidade Automático
Outros vídeos desta música
00:00 / 00:00
Automático

Cifra Club Pro

Aproveite o Cifra Club com benefícios exclusivos e sem anúncios
Cifra Club Pro
Aproveite o Cifra Club com benefícios exclusivos e sem anúncios
OK