Cifra Club

Woman in Chains

Tears For Fears

Cifra: Principal
exibições 104.267
Tom: F
(intro) F Dm Bb F

E|--13--20--13-|----20----|
B|-------------|-18----18-|  (Gtr.1)
G|-------------|----------|

G|-------5------7-|-----5------7--|
D|---7-5----7-5---|-7-5----7-5----|
A|-8--------------|---------------| (Effects/Gtr.2)
E|----------------|---------------|

     F
You better love loving and you better behave
     Dm
You better love loving and you better behave
Bb                             F
Woman in chains, woman in chains
 F
Calls her man the Great White Hope
 Dm
Says she's fine, she'll always cope
Bb                             F
Woman in chains, woman in chains
        Dm  Dm/C                    Bb
Well I feel lying and waiting is a poor man's deal (a poor man's deal)
        Dm  Dm/C                           Bb
Well I feel hopelessly weighed down by your eyes of steel (your eyes of steel)
                                              F Dm
It's a world gone crazy, keeps woman in chains

E|------------------------------------------------|------9---------------|
B|--6-0-5-3-0-5-6---6-0-5-3-0-5-6--6-0-5-3-0-5-6--|--6-0---0-5-0-3-0-6---| (Gtr.1)
G|------------------------------------------------|----------------------|
                                                            3X
Bb                             F
Woman in chains, woman in chains
  F
Trades her soul as skin and bone
 Dm
Sells the only thing she owns
Bb                             F
Woman in chains, woman in chains
                          Dm Bb F
Men of stone, men of stone
        Dm  Dm/C                                 Bb
Well I feel deep in your heart there are wounds time can't heal (time can't heal)
        Dm  Dm/C                     Bb
Well I feel somebody somewhere is trying to breathe, you know what I mean
                                              C
It's a world gone crazy, keeps woman in chains
                Bb                Dm
It's under my skin but out of my hands

               C                      Bb
I'll tear it apart but I won't understand
                                    Bb
I will not accept the greatness of man

It's a world gone crazy, woman in chains
                                  Bb
Gone crazy, keeps woman in chains

     G            Em    C  G
So free her, so free her, (...)
E|------------------------------------------------|------7---------------|
B|--8-0-7-5-0-7-8---8-0-7-5-0-7-8--8-0-7-5-0-7-8--|--8-0---0-7-0-5-0-8---| (Gtr.1)
G|------------------------------------------------|----------------------|
                                                           3X
Acordes para:
    Composição: Roland OrzabalColaboração e revisão:
    • Felipe Fidélis
    • Ruy Costa

    0 comentários

      mostrar mais comentários

      Conseguiu tocar?

      6tocaram0ainda não

      Grave um vídeo tocando Woman in Chains e mande pra gente!

      00:00 / 00:00
      outros vídeos desta música
      repetirqualidadeautomática
      Outro vídeos desta música
        00:00 / 00:00
        automática
        OK