Cifra Club

Stormtroopin

Ted Nugent

Tab de baixo: Principal
             G|------------------------------------0-|
             D|------5-7-----5-7-----5-7-----0---2---| Do 5x's
             A|----------------------------2---3-----|
             E|--5-5-----5-5-----5-5-----3-----------|


             G|--------12-12-12-12-|
             D|-9-9----------------|
             A|--------------------|
             E|--------------------|


             G|------------------------------------0-|
             D|------5-7-----5-7-----5-7-----0---2---| Do 4x's
             A|----------------------------2---3-----|
             E|--5-5-----5-5-----5-5-----3-----------|


             G|------------------------------------------------------------|
             D|-7-7-7-7-7--9-10-10-10-10-10--12--5-5-5-5-5--7--8-8-8-8-8-10|
             A|------------------------------------------------------------|
             E|------------------------------------------------------------|


             G|--------------------------------------------------------------|
             D|-7-7-7-7-7--9-10-10-10-10-10--12--5-5-5-5-5--7--8-8-8-8-8--10-|
             A|--------------------------------------------------------------|
             E|--------------------------------------------------------------|

             G|--------12-12-12-12-|
             D|-9-9----------------|
             A|--------------------|
             E|--------------------|


             G|------------------------------------0-|
             D|------5-7-----5-7-----5-7-----0---2---| Do 2x's
             A|----------------------------2---3-----|
             E|--5-5-----5-5-----5-5-----3-----------|

               play the 5th on E for most then start this
             G|------------0-----------------------------|
             D|------0---2-------------------------------| Do 2x's
             A|----2---3---------------------------------|
             E|--3------------55----55----55-------------|


             G|------------------------------------0-|
             D|------5-7-----5-7-----5-7-----0---2---| Do 2x's
             A|----------------------------2---3-----|
             E|--5-5-----5-5-----5-5-----3-----------|
                  End of solo

             G|------------------------------------0-|
             D|------5-7-----5-7-----5-7-----0---2---| Do 4x's
             A|----------------------------2---3-----|
             E|--5-5-----5-5-----5-5-----3-----------|

             G|--------12-12-12-12-|
             D|-9-9----------------|
             A|--------------------|
             E|--------------------|

             G|------------------------------------0-|
             D|------5-7-----5-7-----5-7-----0---2---| Do 3x's
             A|----------------------------2---3-----|
             E|--5-5-----5-5-----5-5-----3-----------|
00:00 / 00:00
Outros vídeos desta música
Repetir
Outros vídeos desta música
Composição de Ted Nugent
146 exibições

0 comentários

Ver todos os comentários

Conseguiu tocar?

0 Tocaram 0 Ainda não

Grave um vídeo tocando Stormtroopin e nos envie!

00:00 / 00:00

Cifra Club Pro

Aproveite o Cifra Club com benefícios exclusivos e sem anúncios
Cifra Club Pro
Aproveite o Cifra Club com benefícios exclusivos e sem anúncios
OK