Notificações Amigos pendentes

      Temas de Filmes

      Homem de Ferro

      53.856 exibições
      Tom: B
      Intro Coretíssima
        
      
      e|-----------------------------------------------------|
      B|-----------------------------------------------------|
      G|-----------------------------------------------------|
      D|-----------------------------------------------------|
      A|-2-5-5-7-7-10-9-10-9-10-9-5-5-5-7-7------------------|
      E|-----------------------------------------------------|
      
      
                        [Verso 2]
      
      |---------------------------------------------------|
      |---------------------------------------------------|
      |---------------------------------------------------|
      |-----------------5p4-5p4-5p4-----------------------|
      |-----5-5---7-7------------------5-5---7-7-----/14--|
      |--7------------------------------------------------|
      
      
                    [PRiff]                 |          [P2Riff]
      |-------------------------------------|-------------------------------|
      |-------------------------------------|-------------------------------|
      |-------------------------------------|-------------------------------|
      |-------------------------------------|-------------------------------|
      |--------5----------------------------|--------5----------------------|
      |7--7--7-----7--6--5-5-5--0-4--5-5--6-|7--7--7----7--6--5-5-5b(7)==r5-|
      
      
                  [P3Riff]               |            [P4Riff]
      |----------------------------------|------------------------------------|
      |----------------------------------|------------------------------------|
      |----------------------------------|------------------------------------|
      |---------------------------7-8-9--|--11--9-----------------------------|
      |--9--9----------7---7-8-9---------|---------11--10--9---7--------------|
      |--7--7---7---10-------------------|-----------------------7-7--h--9-9--|
      
      
         [Chorus]
      
      |-------------|
      |-------------|
      |-------------|
      |-------------|
      |--14-----12--|
      |--12-----10--|
      
      
                            [P5Riff]
      
      |---------------------------------------------|
      |---------------------------------------------|
      |---------------------------------------------|
      |----------------------------4-5-4-5p4h5p4p0--|
      |--7h5-7---5h7p5-----7h5-7--------------------|
      |---------------------------------------------|
      
      
      -------------------------------------------------------------------
      
      Solos:
      
      Solo 1 [By Michael James] 
      
      |------------------------------------------------------------
      |---------------------------------5----------5-5-------------
      |-------------------------4-4-4h6---6--6p4-------6p4---4h6---
      |-----2-2h4-4p2---2-4-4/6------------------6---------6-------
      |-2-4-----------4--------------------------------------------
      |------------------------------------------------------------
      
      
      |-------------9-----------------------------------9---------------
      |-------------9--12p9-----9-------------------------129----9-129--
      |-6---11-11^----------11----9-9^------------9-11^------119--------
      |---------------------------------11-9-9h11-----------------------
      |-----------------------------------------------------------------
      |-----------------------------------------------------------------
      
      
      |----------------9-12^----9--------12^---12^^12---12^^12-129----9---------
      |----9-129-----9---12^------12-9-9---------------------------12---12-12^--
      |-11-------119------------------------------------------------------------
      |-------------------------------------------------------------------------
      |-------------------------------------------------------------------------
      |-------------------------------------------------------------------------
      
      
      |-----9---------9-------------------------------------------------------
      |-12^---129---9---129---------------------------------------------------
      |----------11---------11-11p9---9-9--------------9-9--------------9-----
      |----------------------------11-----11p9----9h11-----11p9----9-11-9-9---
      |----------------------------------------11---------------11------------
      |-----------------------------------------------------------------------
      
      
      |----------------------------------------------------------
      |----------------------------------------------------------
      |------------------------6-4-------------------------------
      |-9h11-9h11-9h11-9h11--------6-5-4-2-----------------------
      |------------------------------------2-2/4-4---------------
      |----------------------------------------------------------
      
      
      Solo 2 [By Michael James] 
      
      |----------------------------------------------------------
      |----------------------------------------------------------
      |--------------7---7-9-9^^^--9^^^---9^^--7---7/9-----------
      |------5---7/9---9-------------------------9---------------
      |--6/7---7-------------------------------------------------
      |----------------------------------------------------------
      
      
      |-----------10-10h12-12^-12^-12^^-10-12p10-----10----------------------
      |-8---10/12---------------------------------------12-1210-8-11-8------
      |---9--------------------------------------12---------------------9-7--
      |----------------------------------------------------------------------
      |----------------------------------------------------------------------
      |----------------------------------------------------------------------
      
      
      |----------------------------------------------------------
      |----------------------------------------------------------
      |---------------------------------7---7-9-9^^-9^^-9^^^^----
      |-97-5--7p5----5h7-------5-7-7/9---9----------------------
      |------------7------5h7------------------------------------
      |----------------------------------------------------------
      
      
      |----------------------------------------------------------
      |----------------------------------------------------------
      |--9^-9^^-9p7----7-----------------------------------------
      |-------------9------97-5-7---5-7-7^^--7^^--7^^^-5--------
      |----------------------------------------------------7-----
      |----------------------------------------------------------
      
      
      Estrutura:
      
      [Intro] 3x
      
      [Verso 1] 2x
      
      [Verso 2]Has he lost his mind? Can he see or is he blind?
      [Verso 2]Can he walk at all? Or if he moves will he fall?
      
      [Verso 1] 1x
      
      [Verso 2]Is he alive or dead? Has he thoughts within his head?
      [Verso 2]We'll just pass him there. Why should we even care?
      
      [PRiff]  2x
      [P2Riff] 1x 
      
      [Verso 1] 2x
      
      [Verso 2]He was turned to steel in the great magnetic field
      [Verso 2]When he traveled time for the future of mankind
      
      [Chorus]Nobody wants him. He just stares at the world [P3Riff] 2x
      [Chorus]Planning his vengeance that he will soon unfurl [P3Riff] 2x
      
      [Verso 1] 2x
      
      [Verso 2]Now the time is here for Iron Man to spread fear
      [Verso 2]Vengeance from the grave kills the people he once saved
      
      [Chorus]Nobody wants him. They just turn their heads [P3Riff] 2x
      [Chorus]Nobody hepls him. Now he has his revenge [P3Riff] 2x
      
      [P4Riff] 2x
      
      [Solo 1]
      
      [P4Riff]  2x
      [P3Riff]  4x
      [Verso 1] 2x
      
      [Verso 2]Heavy boots of lead, fills his victims full of dread
      [Verso 2]Running as fast as they can, Iron Man lives again
      
      [PRiff]  2x
      [P2Riff] 1x
      
      [Intro] 2x
      [P5Riff] 2x
      
      [Solo 2]
      
      [P5Riff] 3x

      Comentários 6

      140 .
      140 cancelar

      conseguiu tocar?

      • •••

      covers

      Grave um vídeo tocando Homem de Ferro e mande pra gente!

      Ex.: http://www.youtube.com/watch?v=0IvSvIwGdwk
      ver covers de outras músicas »
      0:00 / 0:00

      Capítulos

        2 versões de violão dificuldade exibições contribuição e correção
        2 versões de guitarra dificuldade exibições contribuição e correção
        2 versões de cavaco dificuldade exibições contribuição e correção
        2 versões de teclado dificuldade exibições contribuição e correção
        1 versão de baixo exibições contribuição e correção
        play/pausefechar subir/descer velocidade
        6ª corda E5ª corda A4ª corda D3ª corda G2ª corda B1ª corda E
          acordes
          publicidade
          fechar
          ok