Cifra Club

Rocky Balboa

Temas de Filmes

Cifra: Principal
exibições 207.064
Tom: G
-------------------------------------------
-------------------------------------------
-------------------------------------------
-------------------------------------------
--9----9--7--9----9--7--9----9--7--5-------
--7----7--5--7----7--5--7----7--5--3-------
ou
-------------------------------------------
-------------------------------------------
-------------------------------------------
-------------------------------------------
-------------------------------------------
--7----7--5--7----7--5--7----7--5--3-------
ou
-------------------------------------------
-------------------------------------------
-------------------------------------------
--4-7-9-----7-9-4-------4-7-9---7-9-4------
--2-5-7-----5-7-2-------2-5-7---5-7-2------
-------------------------------------------
Acordes para:
    Colaboração e revisão:

    0 comentários

      mostrar mais comentários

      Conseguiu tocar?

      33tocaram0ainda não

      Grave um vídeo tocando Rocky Balboa e mande pra gente!

      00:00 / 00:00
      outros vídeos desta música
      repetirqualidadeautomática
      Outro vídeos desta música
        00:00 / 00:00
        automática
        OK