Notificações Amigos pendentes

      Temas de Filmes

      Star Wars - Marcha Imperial

      156.414 exibições
      Tom: G
      Intro 4x: É só pegar o ritmo
      
      
      E|-----------------------------------
      B|-----------------------------------
      G|-----------------------------------
      D|-----------------------------------
      A|-10-10--10-10-10--10-10--6-6-6-6---
      E|-----------------------------------
      
      
      Riff principal:
      
      E|-----------------------|---------------------
      B|-----------------------|---------------------
      G|-----------------------|--7-7-7-8------------
      D|-------------8-5---8-5-|----------8-5----8-5-
      A|-10-10-10--6-----6-----|---------------6-----
      E|-----------------------|---------------------
      
      
      E|-------------------------------------
      B|--8------8-7-6-----------------------
      G|---------------9-8-9-----6-5-4-------
      D|----5-5---------------6--------8-7-8-
      A|-------------------------------------
      E|-------------------------------------
      
      
      E|---------------------------------
      B|---------------------------------
      G|------------------7-7------------
      D|----5---8-5--8-5-----------------
      A|--6---6--------------------------
      E|---------------------------------
      
      
      E|-------------------------------------
      B|--8------8-7-6-----------------------
      G|---------------9-8-9-----6-5-4-------
      D|----5-5---------------6--------8-7-8-
      A|-------------------------------------
      E|-------------------------------------
      
      
      E|--------------------------
      B|--------------------------
      G|--------------------------
      D|----5----8-5-----8-5------
      A|--6----6------6-----------
      E|--------------------------
      

      Comentários 10

      140 .
      • Kaio Matheus Kaio Matheus: Em 11/07/2016 21:45

        Só basta decorar

      • putzfail putzfail: Em 01/02/2015 21:07

        easy comecei hj e fiz sapoha

      • eric eric: Em 26/12/2013 15:42

        Muito fácil.

      • mauzayat mauzayat: Em 12/03/2012 01:09

        facinho ..... soh toca todos os dias 5 min a tab em 3 ou 4 dias vc tah melhor q o john willians...

      • qrotocarlogo qrotocarlogo: Em 19/02/2012 21:26

        concordo kaio6felipe,isso eh mais facil que indios do legiao urbana

      • kaio6felip kaio6felip: Em 19/12/2011 12:20

        meus deus quem der trabalho pra aprende isso , abando o violao ou guitarra e escolhe outra coisa

      • guinerdd guinerdd: Em 19/12/2011 11:41

        dart violãoeider

      • foxieladie foxieladie: Em 09/08/2011 18:14

        ou não.

      • multipedro multipedro: Em 03/08/2011 18:22

        q merda

      • daniation daniation: Em 24/05/2011 21:10

        e só pegar o ritimo né

      140 cancelar

      conseguiu tocar?

      • •••

      covers

      Grave um vídeo tocando Star Wars - Marcha Imperial e mande pra gente!

      Ex.: http://www.youtube.com/watch?v=0IvSvIwGdwk
      ver covers de outras músicas »
      0:00 / 0:00

      Capítulos

        1 versão de violão dificuldade exibições contribuição e correção
        1 versão de guitarra dificuldade exibições contribuição e correção
        1 versão de cavaco dificuldade exibições contribuição e correção
        1 versão de teclado dificuldade exibições contribuição e correção
        2 versões de partiturasformatodownloadscontribuição
        play/pausefechar subir/descer velocidade
        6ª corda E5ª corda A4ª corda D3ª corda G2ª corda B1ª corda E
          acordes
          publicidade
          fechar
          ok