Enviar cifraEntrar

Atirei o Pau no Gato

Temas Diversos

Cifra: Principal
exibições 345.253
Tom: C
C               G
Atirei o pau no gato - to
      Dm
Mas o gato - to
      C
Não Morreu - reu - reu
C7   F      F#º
Dona Chica - ca
    C
Admirou-se - se
    G7
Do berro, do berro,
                    C
Do berro que o gato deu: Miau !

(base) C   G   C7   F   C   G   C


E|-3-1-0-0-1-3--3-3----5-3-1--1-1---3-1-0--0-0-------5--5-5--7-5-3--33---0-1-3--0-1-3--1-0------3---|
B|------3----------------------------------------3-1----------------------------------------3-1---1-|
G|--------------------------------------------------------------------------------------------------|
D|--------------------------------------------------------------------------------------------------|
A|--------------------------------------------------------------------------------------------------|
E|--------------------------------------------------------------------------------------------------|


                                               ou


E|--------------|-----------|-----------|-----------|------------|-------------|------------------|----|
B|--------------|-----------|-----------|-----------|------------|-------------|------------------|----|
G|--0-----------|-0-0-0-2-0-|-------0---|-----------|2-2-2---4-2-|-0-0-0-------|-0------0---------|----|
D|----3-2-0-2-3-|-----------|-3-3-3---3-|-2-2-2---0-|------------|---------2-3-|----2-3---3-2-0---|----|
A|--------------|-----------|-----------|-------3---|------------|-------------|------------------|-3--|
E|--------------|-----------|-----------|-----------|------------|-------------|------------------|----|
  • 1
  • 2
  • 3
  • 4
  • 5
  • 6
  • 7
  • 8
  • 9
  • 10
  • 11
  • 12
    Acordes para:

      0 comentários

        mostrar mais comentários

        Conseguiu tocar?

        37tocaram2ainda não

        Grave um vídeo tocando Atirei o Pau no Gato e mande pra gente!

        00:00 / 00:00
        outros vídeos desta música
        repetirqualidadeautomática
        • automática
        Outro vídeos desta música
          00:00 / 00:00
          automática
          • automática
          Acordes para:violão e guitarra
          dificuldadeexibiçõescontribuições
          1 versão de Tab de baixoexibiçõescontribuições
          1 versão de Tab de gaitaexibiçõescontribuições
          1 versão de Partiturasformatodownloadscontribuição
          fecharplay/pause subir/descer velocidade
            acordes
            fechar
            OK
            Feedback