Enviar cifraEntrar

Do Ré Mi Fá

Temas Diversos

Cifra: Principal
exibições 61.578
Tom: C

E|-----------------------------------------------------|
B|----------5-6---6-6-------------------------------|
G|----5-7-----------------5-7-5-7---7-7----------|
D|-----------------------------------------------------|
A|-----------------------------------------------------|
E|-----------------------------------------------------|


E|---------------------------------------------------|
B|-------8-6-5---5-5----------5-6---6-6-------|
G|----5---------------------5-7--------------------|
D|---------------------------------------------------|
A|---------------------------------------------------|
E|---------------------------------------------------|
  • 1
  • 2
  • 3
  • 4
  • 5
  • 6
  • 7
  • 8
  • 9
  • 10
  • 11
  • 12
    Acordes para:

      0 comentários

        mostrar mais comentários

        Conseguiu tocar?

        15tocaram1ainda não

        Grave um vídeo tocando Do Ré Mi Fá e mande pra gente!

        00:00 / 00:00
        outros vídeos desta música
        repetirqualidadeautomática
        • automática
        Outro vídeos desta música
          00:00 / 00:00
          automática
          • automática
          Acordes para:violão e guitarra
          dificuldadeexibiçõescontribuições
          fecharplay/pause subir/descer velocidade
            acordes
            fechar
            OK
            Feedback