Enviar cifraEntrar

Game Of Thrones Theme

Temas Diversos

Cifra: Principal
exibições 176.770
Tom: F
Intro: C5


E|----------------------------------------------|
B|----------------------------------------------|
G|-----------0----------0----------0----------0-|
D|-------1h3--------1h3--------1h3--------1h3---|
A|---3-3--------3-3--------3-3--------3-3-------|
E|----------------------------------------------|


E|----------------------------------------------|
B|----------------------------------------------|
G|-----------0----------0----------0----------0-|
D|-------2h3--------2h3--------2h3--------2h3---|
A|---3-3--------3-3--------3-3--------3-3-------|
E|----------------------------------------------|


Tema Principal:


E|------------------------------|
B|------------------------------|
G|------------------------------|
D|---5-------1h3--0----1h3--0-|
A|---6---3-----------3----------|
E|-------3-----------3------3-----|


E|----------------------------------------------|
B|----------------------------------------------|
G|------------------------------------------|
D|-----------0-----------0-----------0--|
A|-------1h3---------1h3---------1h3------------|
E|---3-3---------3-3---------3-3-----------------------|


E|---------------------------|
B|---------------------------|
G|---------------------------|
D|---3-----1p0-3---1p0--|
A|---1---1-------1------3-|
E|----------------------1----|


E|----------------------------------------------|
B|----------------------------------------------|
G|-----------0----------0----------0----------0-|
D|-------1h3--------1h3--------1h3--------1h3---|
A|---3-3--------3-3--------3-3--------3-3-------|
E|----------------------------------------------|



Oitava Acima:


E|--------------------------------------------------------------|
B|---8-----4/6--8------4h6---3----------3----------3----------3-|
G|---8--5--5/7--8---5---------------3h5--------3h5--------3h5---|
D|------5-----------5-----------5-5--------5-5--------5-5-------|
A|--------------------------------------------------------------|
E|---------------------------3----------------------------------|


E|----1---------1---------------|
B|----------4\3----------4p3----|
G|-------3-----------3--------5-|
D|----------------------------5-|
A|----1-----------------------3-|
E|------------------------------|


Mais uma oitava Acima:


E|---15-----15-------11h13--15------11h13----10-|
B|--------------13--------------13-----------11-|
G|-------0------------------------------------0-|
D|----------------------------------------------|
A|-------------------------------------------10-|
E|----------------------------------------------|


E|---13--------11-----------10-----------8---------6---------8--|
B|--------11-------11-----------11----------8---------6------8--|
G|----------------------10-----------10--------8---------7---8--|
D|-----------------------------------------------------------10-|
A|---13---------------------------------------------------------|
E|--------------------------------------------------------------|



Refrão:


E|---8-------------6h8----6------------4h6----4--------------------3-|
B|---------9--9-----------------6--6----------------1--1--------1--4-|
G|------8--------------------5-------------------1-----------3-----5-|
D|---6----------------------------------------3-----------1--------5-|
A|------------------------6----------------------------3-----------3-|
E|-------------------------------------------------------------------|


E|--------------------------------------------------|
B|----------4--4----------4---------4---------4--4--|
G|-------3-------------3---------3---------5--------|
D|----------------------------3---------5-----------|
A|------------------6-------------------------------|
E|---4----------------------------------------------|


E|---8-------------6h8----6------------4h6----4--------------------|
B|---------9--9-----------------6--6----------------1--1--------1--|
G|------8--------------------5-------------------1-----------3-----|
D|---6----------------------------------------3-----------1--------|
A|------------------------6----------------------------3-----------|
E|-----------------------------------------------------------------|


E|----3------------------------------------------|
B|----4----------4--4----------4-----------------|
G|----5-------3-------------3---------3----------|
D|----5-----------------------------------1p0----|
A|----3------------------6---------5-----------3-|
E|--------4--------------------------------------|
  • 1
  • 2
  • 3
  • 4
  • 5
  • 6
  • 7
  • 8
  • 9
  • 10
  • 11
  • 12
    Acordes para:
      Composição: Ramin DjawadiColaboração e revisão:

      0 comentários

        mostrar mais comentários

        Conseguiu tocar?

        40tocaram1ainda não

        Grave um vídeo tocando Game Of Thrones Theme e mande pra gente!

        00:00 / 00:00
        outros vídeos desta música
        repetirqualidadeautomática
        • automática
        Outro vídeos desta música
          00:00 / 00:00
          automática
          • automática
          Acordes para:violão e guitarra
          dificuldadeexibiçõescontribuições
          1 versão de Tab de baixoexibiçõescontribuições
          2 versões de Guitar Proformatodownloadscontribuição
          fecharplay/pause subir/descer velocidade
            acordes
            fechar
            OK
            Feedback