Enviar cifraEntrar

Mario Bros

Temas Diversos

Cifra: Principal
exibições 356.631
Tom: G
Essa é campeã de audiência, e o cúmulo da música inútil.
A música de quando o Mario entra nas fases de caverna.
Particularmente, uma das minhas inúteis prediletas.......

E|-----------------------------------------------------------------------|
B|-----------------------------------------------------------------------|
G|------5-----2-----3----------5----2-----3--------5----2-----3----------|
D|-----------------------------------------------------------------------|
A|---3-----0-----1----------3----0-----1--------3-----0----1-------------|
E|-----------------------------------------------------------------------|


E|-----------------------------------------------------------------------|
B|-----------------------------------------------------------------------|
G|-----------------------------------------------------------------------|
D|------5------2------3------------5----2-----3--------5-----2-----3-----|
A|-----------------------------------------------------------------------|
E|---3------0------1-----------3-----0-----1--------3-----0-----1--------|


E|--------------------------------------------|
B|--------------------------------------------|
G|--------------------------------------------|
D|--------------------------------------------|
A|--------------------------------------------|
E|---2h3p2--0--3/5--3--5/7--5--7/8---7~~~~----| ==>Quanto a esse final, nao lembro direito

                                                    se é assim, mas dá pro gasto !


Mais uma inútil de Paulo "Mucama" Santos

--------------------------------------------------------------------------------

essa é musica quando o Mario esta dentro no cano...
o ritmo dela é um pouco rápido...



E|--------------------------------------------------
B|--------------------------------------------------  |
G|--------------------------------------------------  | 2x
D|--------------------------------------------------  |
A|-----------------------3--3--0--0--1--1-----------  |
E|---3--3--0--0--1--1------------------------------- /
    ______2x________/  ______2x________/






---------------------------------------------------------------------------------------


ESSA AQUI É A MUSICA DA FASE DA AGUA...
ACHO Q NINGUEM NUNCA PENSOU EM TIRAR NÉ? HEHEHE
COMO EU TIREI DE OUVIDO, NAO CONSEGUI TIRAR INTEIRA.. O RESTO EU NAO
TENHO CERTEZA ENTAO ACHEI MELHOR NAO COLOCAR.. MAS SE ALGUEM SOUBER OS OUTROS ACORDES..
OU QUISER CORRIGIR.. TA AI! HEHE A MINHA PARTE EU JA FIZ! OU
PELO MENOS TENTEI! =]


      G             C                      G                 D


E|---7-------------------------------------------------------------------|
B|-------8--------------8-8----------------------------10---7------------|
G|------------7----9-----------------7----9-----8-8--------------10------|
D|-----------------------------------------------------------------------|
A|-----------------------------------------------------------------------|
E|-----------------------------------------------------------------------|


     G             C                 G        D          G


E|---7----------------------------------------8--7-----------------------|
B|-------8--------------8-8---------------8---------10---8---------------|
G|------------7----9-----------------7-----------------------------------|
D|-----------------------------------------------------------------------|
A|-----------------------------------------------------------------------|
E|-----------------------------------------------------------------------|

E|---7--------------7------------6-------6----5--------------------------|
B|-------8---------------8-----------8-----------------------------------|
G|------------7----------------------------------------------------------|
D|-----------------------------------------------------------------------|
A|-----------------------------------------------------------------------|
E|-----------------------------------------------------------------------|


E|---7--------------7-------------------------------10-------------------|
B|-------8---------------8---------11----10------------------------------|
G|------------7--------------------------------10------------------------|
D|-----------------------------------------------------------------------|
A|-----------------------------------------------------------------------|
E|-----------------------------------------------------------------------|


E|---7----------------------------------------8--7-----------------------|
B|-------8--------------8-8---------------8---------10---8---------------|
G|------------7----9-----------------7-----------------------------------|
D|-----------------------------------------------------------------------|
A|-----------------------------------------------------------------------|
E|-----------------------------------------------------------------------|
  • 1
  • 2
  • 3
  • 4
  • 5
  • 6
  • 7
  • 8
  • 9
  • 10
  • 11
  • 12
    Acordes para:
      Colaboração e revisão:
      • thalespetra

      0 comentários

        mostrar mais comentários

        Conseguiu tocar?

        18tocaram3ainda não

        Grave um vídeo tocando Mario Bros e mande pra gente!

        00:00 / 00:00
        outros vídeos desta música
        repetirqualidadeautomática
        • automática
        Outro vídeos desta música
          00:00 / 00:00
          automática
          • automática
          Acordes para:violão e guitarra
          dificuldadeexibiçõescontribuições
          1 versão de Tab de baixoexibiçõescontribuições
          1 versão de Tab de bateriaexibiçõescontribuições
          2 versões de Guitar Proformatodownloadscontribuição
          1 versão de Partiturasformatodownloadscontribuição
          fecharplay/pause subir/descer velocidade
            acordes
            fechar
            OK
            Feedback