Cifra Club

Say Hello 2 Heaven

Temple Of The Dog

Cifra: Principal (violão e guitarra)
Tom: G
Acordes    EADGBE

 Am        002210
 B         224432
 Bb6       130033
 C         032010
 C9        032033
 D         000232
 Em        022000
 Em7       022033
 Em7/A     002033
 F         133211
 G         320033
 G*        355433
 G#        466544

Introdução:

E|-----3----3---------3---3----------0-----|
B|---3----3--------3----3---3-----3---3---|
G|--------------------------------0-------0-|
D|-3----3--------2----2---2---------------|
A|------------------------------1-----------|
E|------------------------------------------|

E|--------0----------3-----3-------0----------0|
B|------3---3------3-----3-------3---3---------|
G|----0------0-----------------0-------0----0--|
D|---------------------------------------------|
A|-0------------3------3-----2-----------------|
E|----------------------------------------1----|

E|-----0-------0-----|
B|-----------3---3---|
G|---0-----0-------0-|
D|-------------------|
A|-------------------|
E|-1-----0-----------|

F G# G* - 3x

Verso 1

 G             Am        C            Em
 Please mother mercy take me from this place
         G           Am           C             F
 And the long winded curses I keep hearing in my head
 G           Am          C              Em
 Words never listen and teachers never learn
 G                     Am           C               F        
 Now I'm warm from the candle but I feel to cold to burn

Bridge

 He came from an island and he died from the street

E|-------3------3------3------3---------0-------------0-------|
B|-----3------3------3------3---------3---3---------3---3----|
G|----------------------------------0-------0-----0-------0----|
D|----------------------------------------------------------------|
A|-3------3------2------2--------------------------------------|
E|--------------------------------1-------------0----------------|
    G                  Bb6                  Em7/A              C9    
 He hurt so bad like a soul breaking but he never said nothing to me

 
Refrão

              G       D       C
 Say hello to heaven, heaven, heaven
              G       D       C
 Say hello to heaven, heaven, heaven

F G# G*

 Verso 2

 G          Am    C           Em
 New like a baby, lost like a prayer
 G                Am                 C                    F
 The sky was your playground but the cold ground was your bed
 G        Am          C                   Em
 Poor stargazer she's got no tears in her eyes
 G             Am                     C                          F
 Smooth like a whisper she knows that love heals all wounds with time


Bridge ( Mesmas Notas )
 
Now it seems like too much love is never enough
 You better seek out another road 'cause this one has ended abrupt
 ..oh..


Refrão 

Solo 

E|--------------------------------------10------10------10------10----
B|-----------------------------------8-----12------12------12------12-
G|-------------------------7-7h9--------------------------------------
D|---------5-5-7-5-7/9------------------------------------------------
A|---5h7--------------------------------------------------------------
E|--------------------------------------------------------------------

 --15-12----------------------------------15-12------------------------------------
 ---------15-12-----------------------------------15-12----------------------------
 ----------------------14-12--12-12-12--------------------14-12--12-14-12-14b(16)--
 ----------------------------------------------------------------------------------
 ----------------------------------------------------------------------------------
 ----------------------------------------------------------------------------------


E|-------------------------------------------------------------------------------
B|-------------------------------------------------------------------------------
G|--14b(16)-14b(16)-14b(16)-14b(16)-14b(16)/14-12-------12-12-14b(16)-14--12/14--
D|-----------------------------------------------------------------------14------
A|-------------------------------------------------------------------------------
E|-------------------------------------------------------------------------------

 -------------------------15-15-----15-17b(18)-17b(18)-
 ---15-12-15-12-15---------15--------------------------
 ------------------------------------------------------ 
 ------------------------------------------------------
 ------------------------------------------------------
 ------------------------------------------------------


E|--17b(18)-17b(18)--17b(18)-17b(18)--17p15---
B|--------------------------------------------
G|--------------------------------------------
D|--------------------------------------------
A|--------------------------------------------
E|--------------------------------------------

 ----------------------------------------------------------------------------------
 -17--17p15------------------------------------------------------------------------
 ----------------16---14-12-----12-12-12-14b(16)-14b(16)-14b(16)-14b(16)/14-12-14v-
 -------------------------------14-------------------------------------------------
 ----------------------------------------------------------------------------------
 ----------------------------------------------------------------------------------
 

E|---------------------------------15-15---------15------15-15------12-15------12-15-
B|----------------------------15----------15-15-----15-----------15----------15------
G|---14b(16)-14b(16)-14--------------------------------------------------------------
D|-----------------------------------------------------------------------------------
A|-----------------------------------------------------------------------------------
E|-----------------------------------------------------------------------------------

 -------12-15-----12-15/5--------------------------------3/7-----   
 ------15-----------15----------------3-3-3----3-3-3-----2--3/7--
 ----------------------------------------3-3p2---3-3p2--0--------
 ----------------------------------------------------------------
 ----------------------------------------------------------------
 ----------------------------------------------------------------

F G# G*

Verso 3
 G       Am                    C              Em
 I never wanted to write these words down for you
            G        Am         C                  F
 With these pages of phrases of things we'll never do
      G            Am           C          Em 
 So I blow out the candle and I put you to bed
           G                       Bb6 
 Since you can't say to me how the dogs broke your bone
         B                         C
 There's just one thing left to be said ..yeah..

Refrão 

F G# G*  3x

E|-------3------3------3------3---------0-------------0---------3--|
B| -----3------3------3------3---------3---3---------3---3-----3--|
G|----------------------------------0-------0-----0-------0------0--|
D|------------------------------------------------------------------0--|
A|---3------3------2------2--------------------------------------1--|
E| --------------------------------1-------------0------------------3-|
exibições 21.044
Acordes para:
    Composição: Chris Cornell Colaboração e revisão:
    • Thales Lima

    0 comentários

    mostrar mais comentários

    Conseguiu tocar?

    4 tocaram 2 ainda não

    Grave um vídeo tocando Say Hello 2 Heaven e mande pra gente!

    00:00 / 00:00
    outros vídeos desta música
    repetir qualidade Automático
    Outros vídeos desta música
    00:00 / 00:00
    Automático
    OK