Closer To Grey

Ten Foot Pole

Composição de: Dennis Jagard / Steve Von Treetrunk / Steve VonTreetrunk
From: "N.*" 

off the album Rev 
 The song is made up of parts as  follows:

VERSE
   -----------------------------------------------------
   -----------------------------------------------------
   --------------1--1-1--1-1--2--2-2--2-2--4--4-4--4-4--
   -2--2-2--2-2-----------------------------------------

CHORUS
   -----------------
   -----------------
   ---1--------4----
   -2---4----6---4--

BRIDGE TYPE-THING
   -----------------------------------------------------
   -----------------------------------------------------
   --------------1--1-1--1-1---------------4--4-4--4-4--
   -2--2-2--2-2---------------4--4-4--4-4---------------

OUTRO
   ----------------
   ----------------
   ---1-4-----1----
   -2-------2---4--


I'm not too sure about the outro but i think it's right.
It should be pretty easy to work out where everything goes by listening
to the record.
if you think anything is wrong please email me

Nick lott


Página 1 / 1

Letras e título
Acordes e artista

resetar configurações
OK