Cifra Club

Aprenda

Kicked Out Of Kindergarten

Ten Foot Pole

Cifra: Principal (violão e guitarra)
tom: E
Album: Subliminable Messages
Tabbed by: Daniel Vegara
Email: *

It's not 100% correct but's a basic idea of the song

Intro:
e|-----------------------------------------|
B|-----------------------------------------|
G|-----------------------------------------|
D|-44-4-4--3-44-4-4--3-44-4-4--3-44-4-4--3-|
A|-22-2-2--1-22-2-2--1-22-2-2--1-22-2-2--1-|
D|-----------------------------------------|

VERSE Part 1:
e|------------------------|
B|------------------------|
G|------------------------|
D|-4---4444---------------|
A|-2-4-2222-4444-22222222-|
D|---4------4444-22222222-|
                 ******** 
Intro:
e|----------------------|
B|----------------------|
G|----------------------|
D|-44-4-4--3-44-4-4--3--|
A|-22-2-2--1-22-2-2--1--|
D|----------------------|


VERSE Part 2:
e|------------------------|
B|------------------------|
G|------------------------|
D|-4----------------------|
A|-2-4-6-4-22222222-------|
D|---4-6-4-22222222-------|
           ********

Half-Intro:
e|---------------------|
B|---------------------|
G|---------------------|
D|-44-4-4--3-44-4-4--3-|
A|-22-2-2--1-22-2-2--1-|
D|---------------------|

VERSE Part 3:
Intro:
e|----------------------------------------------|
B|----------------------------------------------|
G|----------------------------------------------|
D|----------------------------------------------|
A|-x7x7x7x7x7x7----44444444----x7x7x7x7----1~~--|
D|-x7x7x7x7x7x7----44444444----x7x7x7x7----1~~--|
     Upstrokes                 Upstrokes

Chorus:
e|-----------------------------------------%%------------|
B|-----------------------------------------%%------------|
G|-----------------------------------------%%------------|
D|-----------------------------------------%%--4-4p3-11~-|
A|-22222--44444--66666--99999--22222--44444%%--4-4-4-22~-|
D|-22222--44444--66666--99999--22222--44444%%------------|
                                          Stop!

REPEAT EVERYTHING, PLAYING THE CHORUS TWICE, and not stopping on the first ''%%%%'' part.

"Soft Part":
e|---------------------------------| 
B|---------------------------------|       
G|---------------------------------|  x 2
D|-----9~~----6~~----4~~----2~~----|
A|---9~~----6~~----4~~----2~~------|
D|-9~~----6~~----4~~----2~~--------|

PICKSLIDE + PALM MUTE, and then this again:

VERSE Part 1:
e|------------------------|
B|------------------------|
G|------------------------|
D|-4---4444---------------|
A|-2-4-2222-4444-22222222-|
D|---4------4444-22222222-|
                 ******** 
Intro:
e|----------------------|
B|----------------------|
G|----------------------|
D|-44-4-4--3-44-4-4--3--|
A|-22-2-2--1-22-2-2--1--|
D|----------------------|


VERSE Part 2:
e|------------------------|
B|------------------------|
G|------------------------|
D|-4----------------------|
A|-2-4-6-4-22222222-------|
D|---4-6-4-22222222-------|
           ********

Half-Intro:
e|---------------------|
B|---------------------|
G|---------------------|
D|-44-4-4--3-44-4-4--3-|
A|-22-2-2--1-22-2-2--1-|
D|---------------------|

VERSE Part 3:
Intro:
e|----------------------------------------------|
B|----------------------------------------------|
G|----------------------------------------------|
D|----------------------------------------------|
A|-x7x7x7x7x7x7----44444444----x7x7x7x7----1~~--|
D|-x7x7x7x7x7x7----44444444----x7x7x7x7----1~~--|
     Upstrokes                 Upstrokes

Chorus:
e|-----------------------------------------%%------------|
B|-----------------------------------------%%------------|
G|-----------------------------------------%%------------| x2(not stopping
D|-----------------------------------------%%--4-4p3-11~-| at the first %%)
A|-22222--44444--66666--99999--22222--44444%%--4-4-4-22~-|
D|-22222--44444--66666--99999--22222--44444%%------------| 
                                          Stop!
Outro:
e|------------------------|
B|------------------------|
G|------------------------|
D|-44-4-4--3-44-4-4--3-4--|
A|-22-2-2--1-22-2-2--1-2--|
D|------------------------|


178 exibições
    • ½ Tom
    • A
    • Bb
    • B
    • C
    • Db
    • D
    • Eb
    • E
    • F
    • F#
    • G
    • Ab
  • Adicionar à lista

    0 comentários

    Ver todos os comentários

    Conseguiu tocar?

    0 Tocaram 0 Ainda não

    Grave um vídeo tocando Kicked Out Of Kindergarten e nos envie!

    00:00 / 00:00
    outros vídeos desta música
    repetir qualidade Automático
    Outros vídeos desta música
    00:00 / 00:00
    Automático

    Cifra Club Pro

    Aproveite o Cifra Club com benefícios exclusivos e sem anúncios
    Cifra Club Pro
    Aproveite o Cifra Club com benefícios exclusivos e sem anúncios
    OK