Count Yourself In

Ten Second Epic

Composição de: Andrew Usenik / Daniel Carriere / Patrick Birtles / Sandy MacKinnon
tom: G
All right, well, I figured this out in about all of five minutes...don't hate, just 
I'd post it anyways.

Introduction (Guitar 1)

E|----------------------------------|
B|----------------------------------|
G|----------------------------------|
D|--5-4-2--2-0-0h2-0--5-4-2--2-0--9-|
A|-7-5-3--3----3-----7-5-3--3----10-|
E|----------------------------------|

Verse (Guitar 1)

E|---------------------------------------------------|
B|---------------------------------------------------|
G|---------------------------------------------------|
D|-9-9-7-7-5-5-4-4/5--4/5\4-4--9-9-7-7-5-5-4-4/5-4-7-|
A|-7-7-5-5-3-3-2-2/3--2/3\2-2--7-7-5-5-3-3-2-2/3-2-7-|
E|-------------------------------------------------5-|

Verse (Guitar 2)

E|---------------------------------------------------|
B|-8-8-7-7-5-5-3-3/5-3-3/5\3-3--8-8-7-7-5-5-3/5-3/12-|
G|-x-x-x-x-x-x-x-x-x-x-x-x-x-x--x-x-x-x-x-x-x-x-x--x-|
D|-9-9-7-7-5-5-4-4/5-4-4/5\4-4--9-9-7-7-5-5-4/5-4/12-|
A|-7-7-5-5-3-3-2-2/3-2-2/3\2-2--7-7-5-5-3-3-2/3-2/10-|
E|---------------------------------------------------|

Prechorus (Guitar 1 and 2)

**Just repeat the verse for EACH guitar, except strum the last note at the end...if you 
to the song you can hear it pretty well.

Chorus (Both guitars as far as I can hear, strum each note as song is played, which is 8 
I think)

E|---------------------|
B|---------------------|
G|-9--7--5--2---(9--7)-|
D|-9--7--5--2---(9--7)-|   (only play the bracketed part at the last part of
A|-7--5--3--0---(7--5)-|    chorus)
E|---------------------|

Anyways, I'm not going to bother with the solo...it's 2:30 AM here...I might post it 
the gist of the song, hope you have fun with it..
Página 1 / 1

Letras e título
Acordes e artista

resetar configurações
OK