Heaven And Hell

Tenacious D

tom: G
       7x

e--------------------------------------------|
b--------------------------------------------|
g--------------------------------------------|
d--x-x-5-x-x-5-x-x-5-x-x-5-x-x-5-------------|
a--x-x-5-x-x-5-x-x-5-x-x-5-x-x-5-------------|
e--x-x-4-x-x-4-x-x-4-x-x-4-x-x-4-------------|

      Sing me a song for a singer
 pass me the bong your a bringer of reafer
       the devil is never a maker
   i think that he's coaching the lakers

e---------------------------------------------------------|
b---------------------------------------------------------|
g---------------------------------------------------------|
d-2-2-2-2-2-2-2-2-4-4-4-4-4-4-4-4-6-6-6-x-x-8-x-x-9-------|
a-2-2-2-2-2-2-2-2-4-4-4-4-4-4-4-4-6-6-6-x-x-8-x-x-9-------|
e-0-0-0-0-0-0-0-0-2-2-2-2-2-2-2-2-4-4-4-x-x-6-x-x-7-------|
     now its on and on and on its tenacious D
---------------------------------------------------------------|
---------------------------------------------------------------|
---------------------------------------------------------------|
--2-2-x-x-4-4-4-4-4-x-x-6-6-6-6-6-x-x-8-x-x-9-x-x-11-9-8-6-----|
--2-2-x-x-4-4-4-4-4-x-x-6-6-6-6-6-x-x-8-x-x-9-x-x-11-9-8-6-----|
--0-0-x-x-2-2-2-2-2-x-x-4-4-4-4-4-x-x-6-x-x-7-x-x-9--7-6-4-----|
     i  Can See

e---------------------------------------|
b---------------------------------------|
g---------------------------------------|
d--5-5-5-x-x-5-x-x-5-x-x-5-x-x-5-x-x-5--|
a--5-5-5-x-x-5-x-x-5-x-x-5-x-x-5-x-x-5--|
e--4-4-4-x-x-4-x-x-4-x-x-4-x-x-4-x-x-4--|

Little Solo

 e--2b---------------2b--------------------|
 b-----5-4h5p4-2-2h4----5-4-2-4------------|
 g-----------------------------------------|
 d-----------------------------------------|
 a-----------------------------------------|
 e-----------------------------------------|
Hope You Enjoy
Página 1 / 1

Letras e título
Acordes e artista

resetar configurações
OK