Cifra Club

Aprenda

Rize Of The Fenix

Tenacious D

Cifra: Principal (violão e guitarra)
tom: G
E|-------------------------------------------------------------|x9
B|---------------------------------0---------------------------|
G|---------------------------------0---------------------------|
D|--2--------2---------2--------2------------------------------|
A|--2--------2---------2--------2------------------------------|
E|--0-x-x-x--0--x-x-x--0--x-x-x-0------------------------------|

|-------------------------------------------------------------|
|-------------------------------------------------------------|
|--------------------2-2-2-2-2-2-2-2-2-2-2-2----3---3---------|
|--2-2-2-2-2-2-2-2---2-2-2-2-2-2-2-2-2-2-2-2----3---3---------|
|--2-2-2-2-2-2-2-2---0-0-0-0-0-0-0-0-0-0-0-0----1-x-1-x-------|
|--0-0-0-0-0-0-0-0--------------------------------------------|
*Slightly move your palm off the strings

|-------------------------------------------------------------|x8
|---------------------------------0---------------------------|
|---------------------------------0---------------------------|
|--2--------2---------2--------2------------------------------|
|--2--------2---------2--------2------------------------------|
|--0-x-x-x--0--x-x-x--0--x-x-x-0------------------------------|

|-------------------------------------------------------------|
|-------------------------------------------------------------|
|-------------------------------------------------------------|
|---5---4---3---2---------------------------------------------|
|---5---4---3---2---------------------------------------------|
|---3---2---1---0---------------------------------------------|

|-------------------------------------------------------------|x2
|-------------------------------------------------------------|
|22222222222-33333333333-55555555555-77777777777--------------|
|22222222222-33333333333-55555555555-77777777777--------------|
|00000000000-11111111111-33333333333-55555555555--------------|
|-------------------------------------------------------------|
Sounds shutting and it's hell of a day...

chorus:
|-2-2---2-2----0---0-0----0---0-0-----------------------------|x3
|-2-2---3-3----2---2-2----2---2-2-----------------------------|
|-0-0---2-2----2---2-2----2---2-2-----------------------------|
|-0-0---0-0----2---2-2----2---2-2-----------------------------|
|-2-2----------0---0-0----0---0-0-----------------------------|
|-3-3---------------------------------------------------------|
It's the life of the Fenix...

|--2-2---2-2---1-1--1-1----0----------------------------------|
|--2-2---3-3---1-1--1-1----1----------------------------------|
|--0-0---2-2---3-3--2-2----0----------------------------------|
|--0-0---0-0---3-3--3-3----2----------------------------------|
|--2-2---------3-3--3-3----3----------------------------------|
|--3-3---------1-1--1-1---------------------------------------|

|-------------------------------------------------------------|x2
|-------------------------------------------------------------|
|22222222222-33333333333-55555555555-77777777777--------------|
|22222222222-33333333333-55555555555-77777777777--------------|
|00000000000-11111111111-33333333333-55555555555--------------|
|-------------------------------------------------------------|

|-2-2---2-2----0---0-0----0---0-0-----------------------------|x3
|-2-2---3-3----2---2-2----2---2-2-----------------------------|
|-0-0---2-2----2---2-2----2---2-2-----------------------------|
|-0-0---0-0----2---2-2----2---2-2-----------------------------|
|-2-2----------0---0-0----0---0-0-----------------------------|
|-3-3---------------------------------------------------------|
It's the life of the Fenix...

|--2-2---2-2---1-1--1-1----0----------------------------------|
|--2-2---3-3---1-1--1-1----1----------------------------------|
|--0-0---2-2---3-3--2-2----0----------------------------------|
|--0-0---0-0---3-3--3-3----2----------------------------------|
|--2-2---------3-3--3-3----3----------------------------------|
|--3-3---------1-1--1-1---------------------------------------|

|--0---0---0-0---0--0----0---0---0-0----0-0-------------------|
|--0---0---2-2---2--2----0---0---0-0----0-0-------------------|
|--2---2---2-2---2--2----2---2---2-2----0-0-------------------|
|--2---2---2-2---2--2----2---2---2-2----2-2-------------------|
|--0---0---0-0---0--0----0---0---0-0----2-2-------------------|
|---------------------------------------0-0-------------------|
But what if it's true...

|---2--------------------------0--0--0--0--0--0---------------|
|---2--------------------------0--2--0--2--0--2---------------|
|---0--------------------------2--2--2--2--2--2---------------|
|---0--------------------------2--2--2--2--2--2---------------|
|---2--------------------------0--0--0--0--0--0---------------|
|---3---------------------------------------------------------|
If Tenacious D has died what well we do?
(you'll figure the comp)

|--------0-0---0--0----0---0---0-0----0-0---------------------|
|--------2-2---2--2----0---0---0-0----0-0---------------------|
|--------2-2---2--2----2---2---2-2----0-0---------------------|
|--------2-2---2--2----2---2---2-2----2-2---------------------|
|--------0-0---0--0----0---0---0-0----2-2---------------------|
|-------------------------------------0-0---------------------|

|---2--------------------------0-0--------0--0--0-------------|
|---2--------------------------0---0------2--0--2-------------|
|---0--------------------------2-----2----2--2--2-------------|
|---0--------------------------2----------2--2--2-------------|
|---2--------------------------0----------0--0--0-------------|
|---3---------------------------------------------------------|
About all the fans who have the D tattoo...

|--------0-0---0--0----0---0---0-0----0-0---------------------|
|--------2-2---2--2----0---0---0-0----0-0---------------------|
|--------2-2---2--2----2---2---2-2----0-0---------------------|
|--------2-2---2--2----2---2---2-2----2-2---------------------|
|--------0-0---0--0----0---0---0-0----2-2---------------------|
|-------------------------------------0-0---------------------|

|---2--------------------------0----------0--0----------------|
|---2--------------------------0----------2--0----------------|
|---0--------------------------2----------2--2----------------|
|---0--------------------------2----------2--2----------------|
|---2--------------------------0----------0--0----------------|
|---3---------------------------------------------------------|
They'll have to laser off the D tattoos...
(Again you'll figure out the comp)

|--0----0------0----------------------------------------------|
|--2----0------0----------------------------------------------|
|--2----2------0----------------------------------------------|
|--2----2------2----------------------------------------------|
|--0----0------2----------------------------------------------|
|--------------0----------------------------------------------|
Tattoo... (And again the comp)

|---2--------0------------------------------------------------|
|---2--------0------------------------------------------------|
|---0--------2------------------------------------------------|
|---0--------2------------------------------------------------|
|---2--------0------------------------------------------------|
|---3---------------------------------------------------------|
They'll have to laser off the D tattoo...

|-------------------------------------------------------------|x3
|-------------------------------------------------------------|
|--2-2--2-2--2--2-2-----5-5--5-5--5--5-5----------------------|
|--2-2--2-2--2--2-2-----5-5--5-5--5--5-5----------------------|
|--0-0--0-0--0--0-0-----3-3--3-3--3--3-3----------------------|
|-------------------------------------------------------------|
Wait a minute Kage... What's that you say? (palm mute the chords)

|--0-------2-------2------------------------------------------|x4
|--2-------2-------3------------------------------------------|
|--2-(x8)--0-(x8)--2---(x8)-----------------------------------|
|--2-------0-------0------------------------------------------|
|--0-------2--------------------------------------------------|
|----------3--------------------------------------------------|

One Hit!,One Hit!,One Hit!
Yeah, we're hoping this is it,One Hit!
Drop the hit!Top for that hit!Top thousand hit!
I don't care as long as we get there,
We'll start out new,And you can get a new Tenacious D Tattoo...

(SOLO)


|----9-9-x-x-9-7-5-7-x-5-x-3-7------7-7-7777-x-9-x-7-x-5-x-5-----9---12-10-9--10-9--7-5-10-9--7-3-3/5~----|
|----x-x-x-x-x-x-x-x-x-x-x-x-x------x-x-xxxx-x-x-x-x-x-x-x-x-----x---x--x--x--x--x------------------------|
|--2/9-9-x-x-9-7-7-7-x-5-x-5-7--5/7-7-7-7777-x-9-x-7-x-5-x-5---5/9-9/12-12-10-10-10-7-7-10-10-7-5-5/7~----|
|---------------------------------------------------------------------------------------------------------|
|---------------------------------------------------------------------------------------------------------|
|---------------------------------------------------------------------------------------------------------|

|--0--------2-------------------------------------------------|
|--2--------2-------------------------------------------------|
|--2--------0-------------------------------------------------|
|--2--------0-------------------------------------------------|
|--0--------2-------------------------------------------------|
|-----------3-------------------------------------------------|
(Figure out the comp)

|--2-2-2-2-2-2-2-2--------------------------------------------|
|--3-3-3-3-3-3-3-3--------------------------------------------|
|--2-2-2-2-2-2-2-2--------------------------------------------|
|--0-0-0-0-0-0-0-0--------------------------------------------|
|-------------------------------------------------------------|
|-------------------------------------------------------------|
You can get a new Tenacious d tat-

|----1--1--1-1---2--2---0-------------------------------------|
|----1--1--1-1---2--2---2-------------------------------------|
|----2--2--2-2---0--0---2---(let ring)------------------------|
|----3--3--3-3---0--0---2-------------------------------------|
|----3--3--3-3---2--2---0-------------------------------------|
|----1--1--1-1---3--3-----------------------------------------|
     tooooooooooooooooooooooooooooooo!
Composição de Tenacious D
Colaboração e revisão:
  • Victor
  • Gabriel Guerra
11.241 exibições
    • ½ Tom
    • A
    • Bb
    • B
    • C
    • Db
    • D
    • Eb
    • E
    • F
    • F#
    • G
    • Ab
  • Adicionar à lista

    0 comentários

    Ver todos os comentários
    00:00 / 00:00
    Outros vídeos desta música
    Repetir Qualidade Automático
    Outros vídeos desta música
    00:00 / 00:00
    Automático

    Cifra Club Pro

    Aproveite o Cifra Club com benefícios exclusivos e sem anúncios
    Cifra Club Pro
    Aproveite o Cifra Club com benefícios exclusivos e sem anúncios
    OK