Cifra Club

Sorairo Days

Tengen Toppa Gurren Lagann

Cifra: Principal (violão e guitarra)
tom: Bm
Intro:

E|--------------------------------------------------|------------------------------------------|
B|--------------------------------------------------|------------------------------------------|
G|--------------------------------------------------|------------------------------------------|
D|--9--9--11--11--11---9--9--11--11---9--9--11--11--|--9--9--11--11--11---9--9--11--11---7--7--|
A|--9--9--9---9---9----9--9--9---9----9--9--9---9---|--9--9--9---9---9----9--9--9---9----5--5--|
D|--9--9--9---9---9----9--9--9---9----9--9--9---9---|--9--9--9---9---9----9--9--9---9----5--5--|

E|--------------------------------------------------|------------------------------------------|
B|--------------------------------------------------|------------------------------------------|
G|--------------------------------------------------|------------------------------------------|
D|--9--9--11--11--11---9--9--11--11---9--9--11--11--|--9--9--11--11--11---9--9--11--11---7--7--|
A|--9--9--9---9---9----9--9--9---9----9--9--9---9---|--9--9--9---9---9----9--9--9---9----5--5--|
D|--9--9--9---9---9----9--9--9---9----9--9--9---9---|--9--9--9---9---9----9--9--9---9----5--5--|

E|-----------------------------------------|
B|-----------------------------------------|
G|--11--11--11--11--11---11---7--7--7---9--|
D|--11--11--11--11--11---11---7--7--7---9--|
A|--9---9---9---9---9----9----5--5--5---7--|
D|-----------------------------------------|


Verse/Estrofa:

GUITAR 1:

E|--------------------------|--------------------------|
B|--------------------------|--------------------------|
G|--7------2-------------4--|--7------2-------------4--|
D|--7------2------4------4--|--7------2------4--4---4--|
A|--5------0------4------2--|--5------0------4--4---2--|
D|----------------4---------|----------------4--4------|

GUITAR 2:

E|--------------------------------------------------------|-------------------------------------------------|
B|--------------------------------------------------------|-------------------------------------------------|
G|--11--9--9----11--11--9--9----9--7--7-------6--7--9--7--|--11--9--9----11--11--9--9----7--9--7--9--7--11--|
D|-----------------------------------------7--------------|-------------------------------------------------|
A|--------------------------------------------------------|-------------------------------------------------|
D|--------------------------------------------------------|-------------------------------------------------|

GUITAR 1:

E|--------------------------|--------------------------|
B|--------------------------|--------------------------|
G|--7------2-------------4--|--7------2------4--4---4--|
D|--7------2------4------4--|--7------2------4--4---4--|
A|--5------0------4------2--|--5------0------2--2---2--|
D|----------------4---------|--------------------------|

GUITAR 2:

E|--------------------------------------------------------|-------------------------------------------------|
B|--------------------------------------------------------|-------------------------------------------------|
G|--11--9--9----11--11--9--9----9--7--7-------6--7--9--7--|--11--9--9----11--11--9--9----7--9--9--7--9--11--|
D|-----------------------------------------7--------------|-------------------------------------------------|
A|--------------------------------------------------------|-------------------------------------------------|
D|--------------------------------------------------------|-------------------------------------------------|


Pre-Chorus/Pre-Estribillo:

GUITAR 1:

E|------------|------------|
B|------------|------------|
G|------------|------------|
D|--2------4--|--5------7--|
A|--2------4--|--5------7--|
D|--2------4--|--5------7--|

GUITAR 2:

E|------------------------------------------------|-----------------------------|
B|------10--10------------------------------------|--10--10---------------------|
G|---------------------------------9--11--12--11--|----------12--11--12--11--9--|
D|--12----------12--12--12--9--12-----------------|-----------------------------|
A|------------------------------------------------|-----------------------------|
D|------------------------------------------------|-----------------------------|

GUITAR 1:

E|------------|-----|
B|------------|-----|
G|------------|-----|
D|--2------4--|--4--|
A|--2------4--|--5--|
D|--2------4--|--5--|

GUITAR 2:

E|--------------------------------------------|---------------------|
B|--10--10------------------------------------|---------------------|
G|-----------------------------9--11--12--11--|--9------11--11--12--|
D|----------12--12--12--9--12-----------------|-----12--------------|
A|--------------------------------------------|---------------------|
D|--------------------------------------------|---------------------|


Chorus/Estribillo:

GUITAR 1:

E|------------|
B|------------|
G|--4------2--|
D|--4------2--|
A|--2------0--|
D|------------|

GUITAR 2:

E|--------------------------------------------------------------|
B|------10--------------10----------------10------14-b--14------|
G|----------12--11--12--------12--11--12------11------------11--|
D|--12----------------------------------------------------------|
A|--------------------------------------------------------------|
D|--------------------------------------------------------------|

GUITAR 1:

E|------------------------|
B|---------------------7--|
G|---------4---4--4----5--|
D|--4------4---4--2----5--|
A|--4------2---2--2----3--|
D|--4---------------------|

GUITAR 2:

E|-----------------------------------------------------------|
B|----------10--10--10--10--10-------------------------------|
G|--11--12----------------------12--11--9--9---9------9--11--|
D|------------------------------------------------12---------|
A|-----------------------------------------------------------|
D|-----------------------------------------------------------|

GUITAR 1:

E|------------|
B|------------|
G|--4------2--|
D|--4------2--|
A|--2------0--|
D|------------|

GUITAR 2:

E|--------------------------------------------------------------|
B|------10--------------10----------------10------14-b--14------|
G|----------12--11--12--------12--11--12------11------------11--|
D|--12----------------------------------------------------------|
A|--------------------------------------------------------------|
D|--------------------------------------------------------------|

GUITAR 1:

E|------------------------|
B|------------------------|
G|---------4---4--4----5--|
D|--4------4---4--2----5--|
A|--4------2---2--2----3--|
D|--4---------------------|

GUITAR 2:

E|----------------------------------9--10--9--9------10--|
B|----------10--10--10--10--11-------------------12------|
G|--11--12----------------------11-----------------------|
D|-------------------------------------------------------|
A|-------------------------------------------------------|
D|-------------------------------------------------------|

GUITAR 1:

E|---------------------------|
B|---------------------------|
G|---------------------------|
D|--5------7--7---7---7---7--|
A|--5------7--7---7---7---7--|
D|--5------7--7---7---7---7--|

GUITAR 2:

E|-----------------------------------------------------------|
B|--------------10------------------------10-----------------|
G|--12--11--12----------------12--11--12----------9---9--11--|
D|------------------12--12--------------------12-------------|
A|-----------------------------------------------------------|
D|-----------------------------------------------------------|


Outro:

E|--------------------------------------------------|------------------------------------------|
B|--------------------------------------------------|------------------------------------------|
G|--------------------------------------------------|------------------------------------------|
D|--9--9--11--11--11---9--9--11--11---9--9--11--11--|--9--9--11--11--11---9--9--11--11---7--7--|
A|--9--9--9---9---9----9--9--9---9----9--9--9---9---|--9--9--9---9---9----9--9--9---9----5--5--|
D|--9--9--9---9---9----9--9--9---9----9--9--9---9---|--9--9--9---9---9----9--9--9---9----5--5--|

E|-----------------------------------------|
B|-----------------------------------------|
G|--11--11--11--11--11---11---7--7--7---9--|
D|--11--11--11--11--11---11---7--7--7---9--|
A|--9---9---9---9---9----9----5--5--5---7--|
D|-----------------------------------------|
00:00 / 00:00
Outros vídeos desta música
Repetir
Outros vídeos desta música
Composição de Shoko Nakagawa
Colaboração e revisão:
  • Ulysses Savio
1.621 exibições
    • ½ Tom
    • Am
    • Bbm
    • Bm
    • Cm
    • C#m
    • Dm
    • Ebm
    • Em
    • Fm
    • F#m
    • Gm
    • G#m
  • Adicionar à lista

    0 comentários

    Ver todos os comentários

    Conseguiu tocar?

    1 Tocaram 0 Ainda não

    Grave um vídeo tocando Sorairo Days e nos envie!

    00:00 / 00:00

    Cifra Club Pro

    Aproveite o Cifra Club com benefícios exclusivos e sem anúncios
    Cifra Club Pro
    Aproveite o Cifra Club com benefícios exclusivos e sem anúncios
    OK