Notificações Amigos pendentes

      Tequila Baby

      Menina Linda

      80.155 exibições
      Tom: G
      Intro:
      
         G    D    G      D
      E|--------------------------|
      B|--------------------------|
      G|------7-7---------7-7-7-7-|
      D|-5-5--7-7--5-5-5--7-7-7-7-| (2x)
      A|-5-5--5-5--5-5-5--5-5-5-5-|
      E|-3-3-------3-3-3----------|
      
      
      ( G  D )
      Ah deixa essa boneca faça-me o favor
      deixa issu tudo vem brinca de amor
         C           D
      de amor eh eh eh
      de amor
      ( G  D )
      Oh meu bem
      lembre-se ue existe por aí alguém
      que tão sozinho vive sem ninguém
          C
      sem ninguém
          D
      sem ninguém
      
      E      C           G    ( B  Eb  E )
      Menina linda eu te adoru
      E      C           G
      menina pura como a flor
      C   D          G      E
      sua boneca vai quebrar
      C        D             ( G  D )
      mas viverá o nosso amor
      o nosso amor
      Solo:
      
          C5             D            E5             B5             C5             G5             C             D
      E|-------------------------------------------------------------------------------------------------------------|
      B|-------------------------------------------------------------------------------------------------------------|
      G|------------------------------------------------------------------------------------------------------------|
      D|-------------------------------------------------------------------------------------------------------------|
      A|-3-3-3-3-3-3-3--5-5-5-5-5---7-7-7-7-7-7-7--2-2-2-2----3-3-3-3-3-3-3--------------3-3-3-3-3-3-3-5-5-5-5-5-5-5-|
      E|--------------------------------------------------------------------3-3-3-3-3-3-3----------------------------|
      
      
          C5             D5             E5             B5             C5             G5             C             D
      E|-----------------------------------------------------------------------------------------------------------------|
      B|-----------------------------------------------------------------------------------------------------------------|
      G|-----------------------------------------------------------------------------------------------------------------|
      D|-----------------------------------------------------------------------------------------------------------------|
      A|-3-3-3-3-3-3-3-5-5-5-5-5-5-5-7-7-7-7-7-7-7-2-2-2-2-2-2-2-3-3-3-3-3-3-3---------------3-3-3-3-3-3-3-5-5-5-5-5-5-5-|
      E|-----------------------------------------------------------------------3-3-3-3-3-3-3-----------------------------|
      
      
      Base Final: Em
      
      Riff Final:
      
          C5              D5              E5              B5              C5              G              C              D
      E|------------------------------------------------------------------------------------------------------------------------|
      B|------------------------------------------------------------------------------------------------------------------------|
      G|-5-5-5-5-5-5-5--7-7-7-7-7-7-7--9-9-9-9-9-9-9--4-4-4-4-4-4-4--5-5-5-5-5-5-5-----------------5-5-5-5-5-5-5--7-7-7-7-7-7-7-|
      D|-5-5-5-5-5-5-5--7-7-7-7-7-7-7--9-9-9-9-9-9-9--4-4-4-4-4-4-4--5-5-5-5-5-5-5--5-5-5-5-5-5-5--5-5-5-5-5-5-5--7-7-7-7-7-7-7-|
      A|-3-3-3-3-3-3-3--5-5-5-5-5-5-5--7-7-7-7-7-7-7--2-2-2-2-2-2-2--3-3-3-3-3-3-3--5-5-5-5-5-5-5--3-3-3-3-3-3-3--5-5-5-5-5-5-5-|
      E|----------------------------------------------------------------------------3-3-3-3-3-3-3-------------------------------|
      
      
      (fim dessa base)
      
      E|---------|
      B|---------|
      G|-7-5-4---|
      D|-7-5-4-5-|
      A|-5-3-2-5-|
      E|-------3-|
      
      
        Composição: John Lennon / Paul McCartney / Renato BarrosColaboração e revisão:
        • d3nisss
        • guuga
        • Van Howver
        • Jonas

        Comentários 0

        140 .
        140 cancelar

        conseguiu tocar?

        covers

        Grave um vídeo tocando Menina Linda e mande pra gente!

        Ex.: http://www.youtube.com/watch?v=0IvSvIwGdwk
        ver covers de outras músicas »
        0:00 / 0:00

        Capítulos

          1 versão de violão dificuldade exibições contribuição e correção
          1 versão de guitarra dificuldade exibições contribuição e correção
          1 versão de cavaco dificuldade exibições contribuição e correção
          1 versão de teclado dificuldade exibições contribuição e correção
          1 versão de baixo exibições contribuição e correção
          1 versão de Guitar Proformatodownloadscontribuição
          play/pausefechar subir/descer velocidade
          6ª corda E5ª corda A4ª corda D3ª corda G2ª corda B1ª corda E
            acordes
            publicidade
            fechar
            ok