Cifra Club

Aprenda

Naturalmente Artificial

Tequila Baby

Cifra: Principal (violão e guitarra)
tom: D
Introdução.

|-------------------------------------------------------|
|-------------------------------------------------------|
|--x-5-5-5-5----x-3-3-3-3-------------------------------|
|--x-7-7-7-7----x-5-5-5-5-----x-7-7-7-7----x-5-5-5-5----|
|--x-7-7-7-7----x-5-5-5-5-----x-9-9-9-9----x-7-7-7-7----|
|-----------------------------x-9-9-9-9----x-7-7-7-7----|

|------------------------------------------------------------------------|
|------------------------------------------------------------------------|
|--5-5-5-5-5-x-5----3-3-3-3-3-x-3----------------------------------------|
|--7-7-7-7-7-x-7----5-5-5-5-5-x-5----7-7-7-7-7-x-7----5-5-5-5-5-x-5------|
|--7-7-7-7-7-x-7----5-5-5-5-5-x-5----9-9-9-9-9-x-9----7-7-7-7-7-x-7------|
|------------------------------------9-9-9-9-9-x-9----7-7-7-7-7-x-7------|

|-------------------------------------------------------------|
|-------------------------------------------------------------|
|---x-5-5-5-5------x-3-3-3-3----------------------------------|
|---x-7-7-7-7------x-5-5-5-5-----x-7-7-7-7------x-5-5-5-5-----|
|---x-7-7-7-7------x-5-5-5-5-----x-9-9-9-9------x-7-7-7-7-----|
|--------------------------------x-9-9-9-9------x-7-7-7-7-----|

|-----------------------------------------------------------|
|-----------------------------------------------------------|
|---x-5-5-5-5-----x-3-3-3-3---------------------------------|
|---x-7-7-7-7-----x-5-5-5-5-----x-7-7-7-7-----x-5-5-5-5-----|
|---x-7-7-7-7-----x-5-5-5-5-----x-9-9-9-9-----x-7-7-7-7-----|
|-------------------------------x-9-9-9-9-----x-7-7-7-7-----|

|-------------------------------------|
|-------------------------------------|
|---5--------5-5-5-5-5-5-5-5-5-5------|
|---7--------7-7-7-7-7-7-7-7-7-7------|
|---7--------7-7-7-7-7-7-7-7-7-7------|
|-------------------------------------|

D                          G      A
Tudo que eu consumo é artificial ho ho
D                          G      A
Tudo em minha vida é artificial ho ho
G               A
Tudo que eu  faço
G               A
Tudo que eu sinto hu huuuu
G               A           D
Até meu amor é artificial também.
D                          G   A
Você sempre diz que é natural ho ho
D                           G    A
E que é melhor sempre ser assim ho ho
G              A
Todos seus modos
G                 A    
Todos seus atos hu huuuu
G                     A         D
Mais o seu amor é artificial também

|----------------------------------------------------------|
|----------------------------------------------------------|
|---x-5-5-5-5-----x-3-3-3-3--------------------------------|
|---x-7-7-7-7-----x-5-5-5-5-----x-7-7-7-7-----x-5-5-5-5----|
|---x-7-7-7-7-----x-5-5-5-5-----x-9-9-9-9-----x-7-7-7-7----|
|-------------------------------x-9-9-9-9-----x-7-7-7-7----|

|-------------------------------------------------------------------------------------------------|
|-------------------------------------------------------------------------------------------------|
|-5-5-5-5-5-5-5-5-5-5---3-3-3-3-3-3-3-3-3-3-------------------------------------------------------|
|-7-7-7-7-7-7-7-7-7-7---5-5-5-5-5-5-5-5-5-3---7-7-7-7-7-7-7-7-7-7---5-5-5-5-5-5-5-5-5-5-----------|
|-7-7-7-7-7-7-7-7-7-7---5-5-5-5-5-5-5-5-5-5---9-9-9-9-9-9-9-9-9-9---7-7-7-7-7-7-7-7-7-7-----------|
|-------------------------------------------------------9-9-9-9-9-9-9-9-9-9---7-7-7-7-7-7-7-7-7-7-|

D                         G       A
Tudo que eu consumo é artificial ho ho
D                          G       A
Tudo em minha vida é artificiaaal ho ho
G               A
Tudo que eu  faço
G               A
Tudo que eu sinto hu huuuu
G            A                  D
Até meu amor é artificial também.

D                          G   A
Você sempre diz que é natural ho ho
D                          G     A
E que é melhor sempre ser assim ho ho
G              A
Todos seus modos
G                A    
Todos seus atos hu huuuu
G            A                  D
Até meu amor é artificial também.

Tudo que eu consumo é artificial.
|-------------------------------------------------------------------------------------------------|
|-------------------------------------------------------------------------------------------------|
|-5-5-5-5-5-5-5-5-5-5---3-3-3-3-3-3-3-3-3-3-------------------------------------------------------|
|-7-7-7-7-7-7-7-7-7-7---5-5-5-5-5-5-5-5-5-3---7-7-7-7-7-7-7-7-7-7---5-5-5-5-5-5-5-5-5-5-----------|
|-7-7-7-7-7-7-7-7-7-7---5-5-5-5-5-5-5-5-5-5---9-9-9-9-9-9-9-9-9-9---7-7-7-7-7-7-7-7-7-7-----------|
|-------------------------------------------------------9-9-9-9-9-9-9-9-9-9---7-7-7-7-7-7-7-7-7-7-|

Tudo que eu consumo é artificial.
|-------------------------------------------------------------------------------------------------|
|-------------------------------------------------------------------------------------------------|
|-5-5-5-5-5-5-5-5-5-5---3-3-3-3-3-3-3-3-3-3-------------------------------------------------------|
|-7-7-7-7-7-7-7-7-7-7---5-5-5-5-5-5-5-5-5-3---7-7-7-7-7-7-7-7-7-7---5-5-5-5-5-5-5-5-5-5-----------|
|-7-7-7-7-7-7-7-7-7-7---5-5-5-5-5-5-5-5-5-5---9-9-9-9-9-9-9-9-9-9---7-7-7-7-7-7-7-7-7-7-----------|
|-------------------------------------------------------9-9-9-9-9-9-9-9-9-9---7-7-7-7-7-7-7-7-7-7-|

Também.
|-----------------|
|-----------------|
|-------------7b--|
|---5----7--------|
|---5-------------|
|-----------------|
Composição de Tequila Baby
Colaboração e revisão:
  • Daiane Baroni
18.355 exibições
    • ½ Tom
    • A
    • Bb
    • B
    • C
    • Db
    • D
    • Eb
    • E
    • F
    • F#
    • G
    • Ab
  • Adicionar à lista

    0 comentários

    Ver todos os comentários
    00:00 / 00:00
    Outros vídeos desta música
    Repetir Qualidade Automático
    Outros vídeos desta música
    00:00 / 00:00
    Automático

    Cifra Club Pro

    Aproveite o Cifra Club com benefícios exclusivos e sem anúncios
    Cifra Club Pro
    Aproveite o Cifra Club com benefícios exclusivos e sem anúncios
    OK