Cifra Club

Disciples of the watch

Testament

Cifra: Versão 2 (violão e guitarra)
tom: A
/---------------------------------------------------------------------------
/ The following is the author's own interpretation of the song, to be used -
/ for studying or private use only, removal of any part of this ten line   -
/ header is illegal!!!  Removal of the transcribers name or anything       -
/ relevant to the transcriber is also illegal, as so is the removal of the -
/ place inwhich the tab was downloaded. Publishing as well as printing of  -
/ owner of the song. Failure to apply to these laws result will in legal   -
/ action from the appropriate parties.                                     -
/---------------------------------------------------------------------------

downloaded from Displacer's Tablature Site at
        http://*
join the death/black tab emailing list by filling out the free
subscription form at http://*
  
                From the Album FIRST STRIKE STILL DEADLY
                     Copyright 2001 SPITFIRE RECORDS

                       Full Version - OCTOBER 2002

Re-Transcribed/Edited/New Leads by: Death8699 (Ryan Fanucchi)
Based On Previous Transcription by: Jarle Hille Olsen

For Questions, Comments, Newest Version, or Corrections contact
 Death8699: at ArghE*

Check Out *, With More Transcriptions On It:
 http://*

Check Out Jarle's Web Site, With More Transcriptions On It:
 http://*

.  - palm mute                  ph    - pinched harmonic
\  - slide down to              th    - tap harmonic
h  - hammer on                  b     - bend
p  - pull off                      Suffixes for bend
t  - tap with finger                    f - full bend    h - half bend
"  - tremolo picking                    r - release      t - tap bend
X  - percussion mute                    p - pick when bent
() - ghost note, sustained note         p - pre-bend     w - use bar
*  - see comment                        d - don't pick start of bend

--Transcriber's Notes--

I have spent the past 6 months on these songs trying to
get them as perfect as possible.  If you think further
corrections are needed, have the updated solos, or a
better version of this song please mail me at ArchEnemies
@*.  I plan on tabbing this entire album, I have
been hard at work making my previous 'FSSD' tabs better.
Enjoy!

--Miscellaneous Notes--

P.M.H. - palm mute heavy
(**)   - see comment(s)
(^)    - pause; stacatto
()   - pick-up note(s)
Gtr.1  - right channel (Eric Peterson)
Gtr.2  - left  channel (Alex Skolnick)

Tune Gtr to D (D,G,C,F,A,D)

--DISCIPLES OF THE WATCH--

 [*.1]
||----------------------------------|--------------------------------||
||----------------------------------|--------------------------------||
||*---------------------------------|-------------------------------*||[Gtr.1]
||*-2-2-2-2-5-----4-----5---4---2/3-|-5-----4-----5---4---3\2----*||
||--2-2-2-2-5-----4-----5---4---2/3-|-5-----4-----5---4---3\2-----||
||--0-0-0-0-3_0-0-2-0-0-3-0-2-0-sl--|-3-0-0-2-0-0-3-0-2-0--sl-----||
||  . . . .  p  .   . .   .   .         . .   . .   .   .            ||
||                                                                   ||
||                                                                   ||
||----------------------------------|--------------------------------||
||----------------------------------|--------------------------------||
||----------------------------------|--------------------------------||[Gtr.2]
||--2-2-2-2-5-----------------------|--------------------------------||
||--2-2-2-2-5-----------------------|--------------------------------||
||--0-0-0-0-3-----------------------|--------------------------------||
    . . . .


 [*]
||--------------------------------|-------------------------------||
||--------------------------------|-------------------------------||
||*-------------------------------|------------------------------*||[Gtr.1]
||*-2-2-2-5-----4-----5---4---2/3-|-5-----4-----5---4---3\2------*||
||--2-2-2-5-----4-----5---4---2/3-|-5-----4-----5---4---3\2-------||
||--0-0-0-3_0-0-2-0-0-3-0-2-0-sl--|-3-0-0-2-0-0-3-0-2-0--sl--0----||
||  . . .  p  .   . .   .   .         . .   . .   .   .      .    ||
||                                                                ||
||                                                                ||
||--------------------------------|-------------------------------||
||--------------------------------|-------------------------------||
||--------------------------------|------------------------------*||[Gtr.2]
||----2-2-5-----4-----5---4---2/3-|-5-----4-----5---4---3\2------*||
||----2-2-5-----4-----5---4---2/3-|-5-----4-----5---4---3\2-------||
||----0-0-3_0-0-2-0-0-3-0-2-0-sl--|-3-0-0-2-0-0-3-0-2-0--sl--0----||
      . .  p  .   . .   .   .         . .   . .   .   .      .


Repeat * [4x]


[*] (w/*)
|-------------------------------|--------------------------------|
|-------------------------------|--------------------------------|
|-------------------------------|--------------------------------|[Gtr.2]
|-2-2-2-------------------------|--------------------------------|
|-2-2-2-------------------------|--------------------------------|
|-0-0-0-3_0-0-2_0-0-3_0-2_0-1_0-|-3_0-0-2_0-0-3_0-2_0-1_0-(0)----|
| . . .  p     p     p   p   p     p     p     p   p   p         |
|                                                                |
|                                                                |
|-------------------------------|--------------------------------|
|-------------------------------|--------------------------------|
|-------------------------------|--------------------------------|[Gtr.2]
|-------------------------------|--------------------------------|
|-------------------------------|--------------------------------|
|-0-0-0-3_0-0-2_0-0-3_0-2_0-1_0-|-3_0-0-2_0-0-3_0-2_0-1_0--0-/X\-|
         p     p     p   p   p     p     p     p   p   p    Slides



                                              _____________________
 [*.2]                                 |1.
||---------------------|---------------------|---------------------|
||---------------------|---------------------|---------------------|
||*--------------------|---------------------|---------------------|[Gtr.1]
||*-8\7--7/8-----------|-8\7--7/8------------|-8\7--7/8------------|
||-----------7--7--777-|-----------7--7--777-|-----------7--7--777-|
||--6\5--5/6-0--0--000-|-6\5--5/6--0--0--000-|-6\5--5/6--0--0--000-|
     sl  sl  .  .  ...    sl  sl   .  .  ...    sl  sl   .  .  ...


                                              _____________________
                                             |1.
||---------------------|---------------------|---------------------|
||---------------------|---------------------|---------------------|
||*-3\2--2/3-----------|-3\2--2/3------------|-3\2--2/3------------|[Gtr.2]
||*-3\2--2/3-----------|-3\2--2/3------------|-3\2--2/3------------|
||---sl--sl--2--2--222-|--sl--sl---2--2--222-|--sl--sl---2--2--222-|
||-----------0--0--000-|-----------0--0--000-|-----------0--0--000-|
             .  .  ...             .  .  ...             .  .  ...



_______________________ ___________________________________________
                       |2.                                         |
|----------------------|---------------------|---------------------||
|----------------------|---------------------|---------------------||
|------------------5---|---------------------|--------------------*||[Gtr.1]
|--8\7--7/8--------5---|-8\7--7/8------------|--------------------*||
|------------7--7--3---|-----------7--7------|8_7------------------||
|--6\5--5/6--0--0--3---|-6\5--5/6--0--0--8_7-|-p--5--7--7--5--3--2-||
    sl  sl   .  .         sl  sl   .  .   p       .  .  .  .  .  .



_______________________ ___________________________________________
                       |2.                                         |
|----------------------|---------------------|---------------------||
|----------------------|---------------------|---------------------||
|--3\2--2/3--------5---|-3\2--2/3------------|3_2-----------------*||[Gtr.2]
|--3\2--2/3--------5---|-3\2--2/3--------3_2-|-p--2--4--4--2------*||
|---sl--sl---2--2--3---|--sl--sl---2--2---p--|----------------5--4-||
|------------0--0------|-----------0--0------|---------------------||
             .  .                  .  .           .  .  .  .  .  .


Repeat *.2 [1x]


 [*.3]
||----------------------------------|-----------------------------------||
||----------------------------------|-----------------------------------||
||*---------------------------------|--------4/6------6/7------5\4------||[Gtrs.1&2]
||*-2------4------5-----------------|-2------2/4------4/5------3\2-5\4--||
||--2------4------5--------5-4-3-2--|-2------2/4------4/5-------sl-3\2--||
||--0--0-0-2--0-0-3--0-0-2_|__|__|--|-0--0-0-sl---0-0-sl---0-0------sl--||
||     . .    . .    |_|_|    4          . .      . .      . .          ||
||                     3                                                ||
||                                                                      ||
||                                                                      ||
||----------------------------------|-----------------------------------||
||----------------------------------|-----------------------------------||
||----------------------------------|--------4/6------6/7-(7)----------*||[Gtrs.1&2]
||--2------4------5-----------------|-2------2/4------4/5-(5)----------*||
||--2------4------5--------5-4-3-2--|-2------2/4------4/5-(5)----/X\----||
||--0--0-0-2--0-0-3--0-0-2_|__|__|--|-0--0-0-sl---0-0-sl------0--/X\----||
       . .    . .    |_|_|    4          . .      . .           Slides
                       3


 [*]
||----------------------------------|----------------------------------||
||----------------------------------|----------------------------------||
||*---------------------------------|---------------------------------*||[Gtrs.1&2]
||*5-----4-----5---4---2/3-|-5-----4-----5---4---3\2------*||
||-5-----4-----5---4---2/3-|-5-----4-----5---4---3\2-------||
||-3_0-0-2-0-0-3-0-2-0-sl--|-3-0-0-2-0-0-3-0-2-0--sl-------||
    . . . .  p  .   . .   .   .         . .   . .   .   .


Repeat * [2x]
Repeat *.2  [2x]
Repeat *.3  [1x]
Repeat * [2x]
Repeat * [2x]


|-----|
|-----|
|-----|[Gtrs.1&2]
|--2--|
|--2--|
|--0--|
   ^


[Band Tacet]


 [*.4]
||---------------------------|---------------------------||
||---------------------------|---------------------------||
||*------------4-------------|----4-----4_5_4-----------*||[Gtr.1]
||*-2-(2)---2"-4----2-(2)----|----4------h-p------------*||
||--2-(2)---2"-2----2-(2)----|----2-----------2-3-2-0----||
||--0-(0)---0"------0-(0)----|-0-----0--------|__|__|-1--||
||                             .     .              |_|  ||
||                                                       ||
||                                                       ||
||                                                       ||
||---------------------------|---------------------------||
||---------------------------|----------5_6_5------------||
||*------------4-------------|----4------h-p--4-5-4-2---*||[Gtr.2]
||*-2-(2)---2"-4----2-(2)----|----4-----------|__|__|-3-*||
||--2-(2)---2"-2----2-(2)----|----2-----------------|_|--||
||--0-(0)---0"------0-(0)----|-0-----0-------------------||
                               .     .


Repeat *.4 [1x]


 [*]
||--------------------|--------------------||
||--------------------|--------------------||
||*---------------4---|-4__5__4-----------*||[Gtr.1]
||*-2-(2)---------4---|---h-p-------------*||
||--2-(2)---------2---|---------2-3-2-0----||
||--0-(0)------0----0-|---------|__|__|-1--||
||             .    .                 |_|  ||
||                                         ||
||                                         ||
||                                         ||
||--------------------|--------------------||
||--------------------|-5__6__5------------||
||*---------------4---|---h-p---4-5-4-2---*||[Gtr.2]
||*-2-(2)---------4---|---------|__|__|-3-*||
||--2-(2)---------2---|---------------|_|--||
||--0-(0)------0----0-|--------------------||
               .    .


Repeat *.4.a [3x]


 [*.5]
||---------------------------|---------------------------|
||----------------->---------|->-->-->----------------->-|
||*->--------------5-(5)-----|->-->-->-->--------------5-|[Gtrs.1&2]
||*-2-(2)----2-2-2-5-(5)-----|-5--5--5--2-(2)----2-2-2-5-|
||--2-(2)----2-2-2-3-(3)-----|-3--3--3--2-(2)----2-2-2-3-|
||--0-(0)----0-0-0-----------|-3--3--3--0-(0)----0-0-0---|
             |_|_|             |__|__|           |_|_|
               3                  3                3



|----------------------------|---------------------------||
|----------------------------|---------------------------||
|-(5)--5/9---9----9----9-----|-9----9----9\-------------*||[Gtrs.1&2]
|-(5)------------------------|--------------------------*||
|-(3)--3/7---7----7----7-----|-7----7----7\--------------||
|------sl----|____|____|-----|-|____|____|sl-------------||
                  3                 3


 [*.6]
||-----------------------------------------------------|
||-----------------------------------------------------|
||*----------------------------------------------------|[Gtrs.1&2]
||*-2--------2-----1/2--------2-----2--------1/2-------|
||--2--------2-----1/2--------2-----2--------1/2-------|
||-----0--0-----0--sl---0--0-----0-----0--0--sl---0--0-|
       .  .     .       .  .     .     .  .       .  .


 ______________________________________________________
|1.                                                    |
|------------------------------------------------------|
|------------------------------------------------------|
|------------------------------------------------------|[Gtrs.1&2]
|--/5---------------5----------------------------------|
|--/3--3--3--3-3-3--3--3--3--5--3--2--0--3--2--0-------|
|-sl-------------------------|________|________|--1----|
       .  .  . . .     .  .           8        |__|


 ______________________________________________________
|2.                                                    |
|------------------------------------------------------||
|------------------------------------------------------||
|----------------------------5/9--9--9--9-9--9--9-----*||[Gtrs.1&2]
|--/5---------------5---------------------------------*||
|--/3--3--3--3-3-3--3--3--3--3/7--7--7--7-7--7--7------||
|-sl-------------------------sl---|______|______|-/X\--||
       .  .  . . .     .  .              6      Slides


Repeat *.5 [5x] (w/Slight variations upon repeats;)
                      (listen to song!                  )


[Lead #1] --Gtr.3: Alex Skolnick--
|----------------3--7--3---------------|---------------------12-15-12--------|
|--------------5---------5-------------|-------------------13---------13-----|
|------------4-------------4-----------|-----------------12--------------12--|
|----------5-----------------5---------|-----------10/14---------------------|
|--------7---------------------7-------|--------10--sl-----------------------|
|--0-3-7-------------------------7~----|-0-8/12------------------------------|
|(Arpeggios)                            sim.                                 |
|                                                                            |
|                                                                            |
|                                                                            |
|----------------------------3-7-3-----|-------------------------------12----|
|--------------------------5-------5---|----------------------------13-------|
|------------------------4-----------4-|-------------------------12----------|
|--14\10---------------5---------------|-5-----------------10/14-------------|
|----sl--10----------7-----------------|---7----------------sl---------------|
|-----------12~0-3-7-------------------|-----7~-8-(8)fb__r-------------------|
 sim.                                   sim.




(Con't)
|--15_14_12----------------------------|---------------3--7--3---------------|
|----p--p---15_13_12-------------------|-------------5---------5-------------|
|-------------p--p---14_12_11----------|-----------4-------------4-----------|
|----------------------p--p---14_12_10-|---------5-----------------5---------|
|-------------------------------p--p---|-14\---7---------------------7-------|
|--------------------------------------|---sl--------------------------8~----|
|                                                                            |
|                                                                            |
|                                                                            |
|                               h p p                                        |
|------------------------1215-14151412-|----12-------------------------------|
|---------------------13---------------|-15----15fb~---(15)\-----------------|
|------------------12------------------|-------------------sl--------------4-|
|-----------10-/14---------------------|--------------------------------5----|
|-------------sl-----------------------|-----------------------------7-------|
|-(8)fb__r-----------------------------|----------------------0-3-7----------|

|---3-7-3------------------------------|-------------------------------------|
|-5-------5----------------------------|-------------------------------------|
|-----------4--------------------------|---------------------------------12--|
|-------------5------------------------|---------10----1012--101214111214----|
|---------------7---------910129/1012--|-14101214--1214----14----------------|
|-----------------8~----12-----sl------|-------------------------------------|

                  h p p    p               h p p    p        h p p    p
|---------------14151412-1412---X------|-14151412-1412--12-14151412-1412--12-|
|-------------12-------------15--------|--------------15----------------15---|
|-----12141214-------------------------|-------------------------------------|
|-1314---------------------------------|-------------------------------------|
|--------------------------------------|-------------------------------------|
|--------------------------------------|-------------------------------------|
|                                                                            |
|                                                                            |
|                                                                            |
|   h p p    p           h h p p                                             |
|-14151412-1412---h-h--1415171514------|---p-p-------------------------------|
|---------------131517-----------------|-171513\12---p-p---------------------|
|--------------------------------------|-------sl--141211--------------------|
|--------------------------------------|------------------14\12109-----------|
|--------------------------------------|--------------------sl-p-p-12109-7~--|
|--------------------------------------|-----------------------------p-p-----|

|--------------------------------10----|---------5---------------------------|
|-----------------------12-10_12----12-|-----5---hr--------------------------|
|------------9-----12-9------h---------|-5---hr------------------------------|
|-------9------(9)---------------------|hr-----------------------------------|
|-(7)-7---10---------------------------|-------------------------------------|
|--------------------------------------|-------------------------------------|

|--------------------------------------|-------------------------------0_(6)-|
|--------------------------------------|--------------------------------h----|
|-45---4---5---5___4_2-----------------|-------------------------------------|
|--h-------------p--p----5___2---------|-------------------------------------|
|--------------------------p-----3~----|-------------------------------------|
|-------------------------------ph-----|-------------------------------------|

(Tapping)
|-15_12_7_0-14_12_7-15_12_717_12_7_0-|-15_12_7_0-14_12_7_0-15_12_7_0------|
|--tp--p-p----p--p---tp--p--tp--p-p--|--tp--p-p---tp--p-p---tp--p-p-------|
|------------------------------------|------------------------------------|
|------------------------------------|------------------------------------|
|------------------------------------|------------------------------------|
|------------------------------------|------------------------------------|
|                                                                         |
|                                                                         |
|                                                                         |
|                                                                         |
|-17_12_7_0-15_12_8_0-14_12_8_0------|-15_12_8_017_12_8_015_12_8_0-141280-|
|--tp--p-p---tp--p-p---tp--p-p-------|--tp--p-p--tp--p-p--tp--p-p---tp-pp-|
|------------------------------------|------------------------------------|
|------------------------------------|------------------------------------|
|------------------------------------|------------------------------------|
|------------------------------------|------------------------------------|

|-15128-171280-----------------------|------------------------------------|
|--tp-p--tp-pp---/8---11_8_5-11_8_6--|-12_9_7-12_9_7-13_10_8-14_11_8------|
|---------------sl-----tp-p---tp-p---|--tp-p---tp-p---tp-p----tp-p--------|
|------------------------------------|------------------------------------|
|------------------------------------|------------------------------------|
|------------------------------------|------------------------------------|
|                                                                         |
|                                                                         |
|                                                                         |
|                                                                         |
|---------------/15~-----------------|------------------------------------|
|-14_11_8-15_13sl---------15_12-/15--|-17_15_12----15-17_15_12----15--%---|
|--tp--p----p---------------p--sl----|---p--p---15------p--p---15---------|
|------------------------------------|------------------------------------|
|------------------------------------|------------------------------------|
|------------------------------------|------------------------------------|

                                           -------Vibratto--------
|------------------------------------|------------------------------------|
|------------------------------------|-15--------------------------(15)\--|
|-%-----%-----%-----%-----%-----%----|-14fb~_______________________(14)\--|
|------------------------------------|---------------------------------sl-|
|------------------------------------|------------------------------------|
|------------------------------------|------------------------------------|


 [*.7]
||---------------------|----------------------|----------------------|
||---------------------|----------------------|----------------------|
||*-3/4------------6/7-|---------------------/|10--9/10---------6/7--|[Gtrs.1&2]
||*-3/4----4/5-----6/7-|---------------------/|10--9/10---6/7---6/7--|
||--1/2----4/5-----4/5-|-2--2--2-2-2--2-2-2--/|8---7/8----6/7---4/5--|
||--sl--0--2/3--0--sl--|-0--0--0-0-0--0-0-0-sl|----sl---0-4/5-0-sl---|
        .  sl   .        .  .  . . .  . . .             . sl  .



 _____________________________________________
|1.                                           |
|----------------------|----------------------||
|----------------------|----------------------||
|----------------------|-------------------||[Gtrs.1&2]
|--2---2------2---2----|-------------------||
|--2---2------2---2----|-------------------||
|--0---0------0---0----|----------------------||
   .   ^      .   ^

 _____________________________________________
|2.                                           |
|----------------------|----------------------||
|----------------------|----------------------||
|----------------------|------------------*||[Gtrs.1&2]
|----------------------|------------------*||
|--2--2--2-2-2--2-2-2--|-------------------||
|--0--0--0-0-0--0-0-0--|----------------------||
   .  .  . . .  . . .


Repeat *.7 [1x]


 [*.8]
||--------------------------------------------||
||--------------------------------------------||
||*----------------------------------3--------||[Gtrs.1&2]
||*-2---------3----------------------3--------||
||--2---------3---------2-2-2--------1--------||
||--0---0--0--1---0--0--0-0-0--0--0------0--0-||
||      .  .      .  .  . . .  .  .      .  . ||
||                                            ||
||                                            ||
||--------------------------------------------||
||----------------------------------->---->---||
||-----------------------------------3----3--*||[Gtrs.1&2]
||--2----------------------2---------3----3--*||
||--2---------3-3-3--------2---------1----1---||
||--0---0--0--1-1-1--0--0--0---0--0--1----1---||
        .  .  . . .  .  .      .  .


 [*]
||--------------------------------------------|
||--------------------------------------------|
||*-------------------------------3-----------|[Gtrs.1&2]
||*-2---------3-------------------3-----------|
||--2---------3---------2"--------1-----------|
||--0---0--0--1---0--0--0"--0--0------0--0----|
||      .  .      .  .  .   .  .      .  .    |
||                                            |
||                                            |
||--------------------------------------------|
||-------------------------------->----->-----|
||*-------------------------------3-----3-----|[Gtrs.1&2]
||*-2-------------------2---------3-----3-----|
||--2---------3"--------2---------1-----1-----|
||--0---0--0--1"--0--0--0---0--0--1-----1-----|
        .  .  .   .  .      .  .



(Last Ending)
|---------------------------------------------||
|---------------------------------------------||
|--------------------------------3------------||[Gtrs.1&2]
|--2---------3-------------------3------------||
|--2---------3---------2"--------1------------||
|--0---0--0--1---0--0--0"--0--0------0--0-----||
|      .  .      .  .  .   .  .      .  .     ||
|                                             ||
|                                             ||
|--------------------------------------->-----||
|--------------------------------------->-----||
|---------------------------------------3----*||[Gtrs.1&2]
|--2-------------------2---------3--3---3----*||
|--2---------3"--------2---------1--1---1-----||
|--0---0--0--1"--0--0--0---0--0--1--1---1-----||
       .  .  .   .  .      .  .  .  .


Repeat *.3  [2x]
Repeat *.2  [2x]
Repeat *.3  [2x]
Repeat * [2x]
Repeat * [2x]


 [Final]
||----------------------------|----------------------------||
||----------------------------|----------------------------||
||---------------------/9-(9)-|-9-(9)----\-----------------||[Gtrs.1&2]
||--2-(2)--------------/9-(9)-|-9-(9)----\--------------2--||
||--2-(2)--------------/7-(7)-|-7-(7)----\22-3---3---3--2--||
||--0-(0)--------------/0-(0)-|-0-(0)----\00-1---1---1--0--||
                      sl                sl   .   .   .(End!)


--'DISCIPLES OF THE WATCH' LYRICS--

(Skolnick, Peterson, Billy)

Cast to the fire
Banned by the light
Worship and listen to me
Condemned in his mind
In his evil place
Your fate is all that you'll see
I am the one
To show you the path
Salvation is in the fields
Listen up children and follow me
Or I'll let you pay the price
Of Malachi!

Disciples of the watch
Obey!
Or I'll burn you to that cross!

Holding the mass
The demon is cast
To resurrect your soul
Calling to him
Is like an evil sin
A prophet is what they're told
Taking the land under command
Killing friend or foe
Feel the might of his evil wrath
Desecrate your soul!

Disciples of the watch
Obey!
Or I'll burn you to that cross!

Cast to the fire
Banned by the light
Worship and listen to me
Condemned in his mind
In his evil place
Your fate is all that you'll see
I am the one
To show you the path
Salvation is in the fields
Listen up children and follow me
Or I'll let you pay the price
Of Malachi!

Disciples of the watch
Obey!
Or I'll burn you to that cross!

Check Out *, With More Transcriptions On It:
 http://*

Check Out Jarle's Web Site, With More Transcriptions On It:
 http://*

  Visit * for more metal tablature
Composição de Alex Skolnick / Chuck Billy; Eric Peterson
48 exibições
    • ½ Tom
    • A
    • Bb
    • B
    • C
    • Db
    • D
    • Eb
    • E
    • F
    • F#
    • G
    • Ab
  • Adicionar à lista

    0 comentários

    Ver todos os comentários

    Conseguiu tocar?

    0 Tocaram 0 Ainda não

    Grave um vídeo tocando Disciples of the watch e nos envie!

    00:00 / 00:00
    Outros vídeos desta música
    Repetir Qualidade Automático
    Outros vídeos desta música
    00:00 / 00:00
    Automático

    Cifra Club Pro

    Aproveite o Cifra Club com benefícios exclusivos e sem anúncios
    Cifra Club Pro
    Aproveite o Cifra Club com benefícios exclusivos e sem anúncios
    OK