Nostrovia

Testament

Composição de: Chuck Billy / Derrick Ramirez / Eric Peterson
tom: E
Album: Demonic
Transcribed by: Nikhil Nair
Email: *

                                       
legend:
. .= palm mute
/  = slide up
\  = slide down

chords:
         EADGBe
E       (022xxx)
F#      (244xxx)
G       (355xxx)
G#      (466xxx)

Intro:
-|----------------------------|
-|----------------------------|
-|*--------------------------*|
-|*--4---------6-----6-------*| x9
-|---4---------6-----6--------|
-|---2---------4-----4--3--3--|
                        .  .                                                  

-|----------------------------|------------------------------|
-|----------------------------|------------------------------|
-|----------------------------|------------------------------|
-|--------6----------6--4--5--|--------5---------------------|
-|--------6----------6--4--5--|--------5--/10-13-13-13-10-9--|
-|--4--4--4----4--4--4--2--3--|--3--3--3---------------------|
    .  .       .  .              .  .                                         

-|-------------------------------|-----------------------|-----------|
-|-------------------------------|-----------------------|-----------|
-|-------------------------------|-----------------------|-----------|
-|--------6----------------------|--------6\5----5-------|--6--------|
-|--------6--/11-14-14-14-11-10--|--------6\5----3-------|--6--------|
-|--4--4--4----------------------|--3--3--4\3-3--3-------|--4--3--3--|
    .  .                            .  .      .                .  .           
 
Verse:
-|-------------------------------------|
-|-------------------------------------|
-|*-----------------------------------*|
-|*--4---4------6---6-6-6-6--6--------*| x4
-|---4---4------6---6-6-6-6--6---------|
-|---2---2------4---4-4-4-4--4--3--3---|
                                .  . 

Interlude:
-|----------------------------|------------------------------|
-|----------------------------|------------------------------|
-|----------------------------|------------------------------|
-|--------6----------6--4--5--|--------5---------------------|
-|--------6----------6--4--5--|--------5--/10-13-13-13-10-9--|
-|--4--4--4----4--4--4--2--3--|--3--3--3---------------------|
    .  .       .  .              .  .

-|-------------------------------|-----------------------|-----------|
-|-------------------------------|-----------------------|-----------|
-|-------------------------------|-----------------------|-----------|
-|--------6----------------------|--------6\5----5-------|--6--------|
-|--------6--/11-14-14-14-11-10--|--------6\5----3-------|--6--------|
-|--4--4--4----------------------|--3--3--4\3-3--3-------|--4--3--3--|
    .  .                            .  .      .                .  .
 
Verse:
-|-------------------------------------|
-|-------------------------------------|
-|*-----------------------------------*|
-|*--4---4------6---6-6-6-6--6--------*| x3
-|---4---4------6---6-6-6-6--6---------|
-|---2---2------4---4-4-4-4--4--3--3---|
                                .  . 

Last time for verse:
-|--------------------------------------|
-|--------------------------------------|
-|--------------------------------------|
-|--4---4------6---6-6-6-6--6--------2--|
-|--4---4------6---6-6-6-6--6--------2--| ring till fade
-|--2---2------4---4-4-4-4--4--3--3--0--|
                               .  .
Página 1 / 1

Letras e título
Acordes e artista

resetar configurações
OK