Cifra Club

Cantico 111 (Ele Chamará)

Testemunhas de Jeová

Cifra: Principal
exibições 48.372
Tom: D
1ª frase:
 A vida é qual bruma lá no mar,Não dura muito tempo;
E|----------------------------------------------
B|--7-5-7-10-3-3-5-5-7-7--------7--------7-------
G|------------------------------------9-9--7----
D|----------------------------7--------------9--
A|----------------------------------------------
E|----------------------------------------------

2ª frase:
Tudo que somos pode acabar, Deixando sofrimento.
E|----------------------------------------------------------
B|--8-7-8-12--7-7-5-5-7-8-10-7-5-5-7--12--------------------
G|----------------------------------7-----------------------
D|----------------------------------------------------------
A|----------------------------------------------------------
E|----------------------------------------------------------

3ª frase:
Se alguém morrer, pode reviver? Ouça o que Jeová fará:
E|---------------------------------------------------
B|---12--3-2-3--12---10-3-2-3-10--10--8-8-7-7---8----
G|------------------------------------------------9--
D|---------------------------------------------------
A|---------------------------------------------------
E|---------------------------------------------------

Refrão:
chamará os que estao mortos
E|------------------------------
B|-------------7-8-5-10---------
G|--7-9-11--------------7-------
D|------------------------------
A|------------------------------
E|------------------------------

á sua voz responderão,      jeová terá saudades
E|----------------------------------------------------
B|---12-14-15-15-14-10-12---12/14--10-10-10-12-10-----
G|------------------------------------------------12--
D|----------------------------------------------------
A|----------------------------------------------------
E|----------------------------------------------------

do trabalho da suas mãos
E|---------------------------------
B|-------------10-8-5--------------
G|--7-9-11------------7------------
D|---------------------------------
A|---------------------------------
E|---------------------------------

tenha fé, jamais duvide:
E|---------------------------------
B|-------------7-8-5-10------------
G|--7-9-11--------------7----------
D|---------------------------------
A|---------------------------------
E|---------------------------------

quem amamos voltará! pra sempre viveremos
E|----------------------------------------------------
B|---12-14-15-15-14-10-12---12/14--10-10-10-12-10-----
G|-------------------------------------------------12-
D|----------------------------------------------------
A|----------------------------------------------------
E|----------------------------------------------------

com as bençãos de jeová.
E|---------------------------------
B|-------------10-8-5--------------
G|--7-9-11------------7------------
D|---------------------------------
A|---------------------------------
E|---------------------------------

Repete para segunda parte.
Acordes para:
    Composição: Torre de vigia de bíblias e tratadosColaboração e revisão:
    • Nathan Silva
    • junior
    • Pedro Santos

    0 comentários

      mostrar mais comentários

      Conseguiu tocar?

      26tocaram1ainda não

      Grave um vídeo tocando Cantico 111 (Ele Chamará) e mande pra gente!

      00:00 / 00:00
      outros vídeos desta música
      repetirqualidadeautomática
      Outro vídeos desta música
        00:00 / 00:00
        automática
        OK