Cunhataiporã

Tetê Espíndola

Composição de: Geraldo Espíndola
tom: G
E|-----------2-----------|
B|-----------3--3-3------|
G|-------4-------4-------|
D|-----4-----------------|
A|---2-----2-------------|
E|-----------------------|

Bm               Bm/A
 Onde você quer ir meu bem?
Bm/F#             Bm/G
 Diga logo pra eu ir também
Bm                 Bm/A
 Você quer pegar aquele trem?
Bm/F#                 Bm/G
 É naquele trem que eu vou também

D                C
 É pra ponta-porã?
 G                 A
Cunhataiporã che rohayhu
D            C
 É pra corumbá?
G                         A
 É lá que eu vou pegar um  barco

Bm           Bm/A
E descer o rio Paraguai
Bm/F#             Bm/G
Cantando as canções que não se ouvem mais

Ianaundêro, ianaundêro

E|----------------------------------------|
B|-------------------------8--8-8--7-7-7--|
G|--4--6-7-6-4-4--6-7-6-4-----------------|
D|-------------------------5--5-5--4-4-4--|
A|--2--4-5-4-2-2--4-5-4-2-----------------|
E|----------------------------------------|


Página 1 / 1

Letras e título
Acordes e artista

resetar configurações
OK