Escrita Nas Estrelas

Tetê Espíndola

tom: E
Intro:

E|--12~~~--11~~~-------------12~~~-----------------------
B|--------------12~~~--11~--10~-~~---10/9-9/10-10/9-9/10-
G|-------------------------------------------------------
D|-------------------------------------------------------
A|-------------------------------------------------------
E|-------------------------------------------------------

E|------------------------------------------------------
B|-10-10-10----10h12p10h12-10/9-------------------------
G|------------------------------9~~~~~---8~~~~~---------
D|------------------------------------------------------
A|------------------------------------------------------
E|------------------------------------------------------

Final Do Verso :(Enquanto a Tete Espindola esta cantando no final)

E|--12~~~--12~~~-------------12~~~-----------------------
B|--------------12~~~--11~--10~-~~---10/9-9/10-10/9-9/10-
G|-------------------------------------------------------
D|-------------------------------------------------------
A|-------------------------------------------------------
E|-------------------------------------------------------

E|---------------------------------------------------------------
B|------10-10-10----10h12p10h12-11/9-----------------------------
G|-----------------------------------9~~~~~--8~~~~~----------8~~-
D|---------------------------------------------9~~~--8~~~-7~~----
A|---------------------------------------------------------------
E|---------------------------------------------------------------

E|---------------------------------------------------------------
B|--------------------------------------------------------------
G|--------------------------------------------------------------
D|---8/7-7/8-8/7-7/8---9h11p9h11---8/7--------------------------
A|--------------------------------------7~~~~~------------------
E|--------------------------------------------------------------
Página 1 / 1

Letras e título
Acordes e artista

resetar configurações
OK