Cifra Club

Amor Maravilhoso

Thalles Roberto

Tab de baixo: Principal
Riff 1:
G|--------------------------|
D|--------------------------|
A|-----5---7-7-5-------3--5-|
E|-7-7---7-------7-5-5---5--|

G|-----------------------------------|
D|-----------------------------------|
A|-----5---7-7-5-------3---5-5-3-7---|
E|-7-7---7-------7-5-5---5-----------|


Riff 2:
G|--------4-5-6-----|
D|--5-6-7-------7---|
A|------------------|
E|------------------|

Riff 3:
G|----16--14--------|
D|--14------16-14---|
A|------------------|
E|------------------|

Riff 4:
G|------------------|
D|------------------|
A|-------5--6-7-5---|
E|--5-6-7-----------|

Letra: 

(Intro) Riff 1 (4 vezes).

E                    A          (Riff 2)
Filho nunca te abandonei.
D                           G          (Riff 3)
Te carreguei no colo tantas vezes.
E                 A          (Riff 2)
Você não estava sozinho,
D                    G          (Riff 4)
Joelhos clamavam por você.
E                           A             
Amor, você não sabe quantas vezes
D                      G
O inimigo quis te destruir.

G|--3---5-------|
D|--------------|
A|--3---5-------|
E|--------------|
                          
Mas tu és meu e o que é meu ele não toca!

(Riff 1)     
O Seu amor por mim é tão maravilhoso.
Amor tão grande, o amor que nunca desistiu de mim.
Ele arrancou a minha vida das mãos do inimigo.
Oh Glória, oh glória, oh glória, oh glória...

E                       A          (Riff 2)
Filho eu não desisto de você.
D                               D          (Riff 3)
Pra mim você é mais que o mundo inteiro.
E                         A          (Riff 2)
Eu nunca vou te deixar só, te deixar sozinho.
D                     G          (Riff 4)
Oh, Filho como eu amo você.
E                           A          (Riff 2)
Amor, você não sabe quantas vezes
D                      G
O inimigo quis te destruir.

G|--3---5-------|
D|--------------|
A|--3---5-------|
E|--------------|

Mas tu és meu e o que é meu ele não toca!
exibições 19.893
Composição: Thalles Roberto Colaboração e revisão:
  • Dario Santana
  • Victor Rodrigues
  • Gabriel Leão

0 comentários

mostrar mais comentários

Conseguiu tocar?

7 tocaram 0 ainda não

Grave um vídeo tocando Amor Maravilhoso e mande pra gente!

00:00 / 00:00
outros vídeos desta música
repetir qualidade Automático
Outros vídeos desta música
00:00 / 00:00
Automático
OK