Cifra Club

Eu Amo Vocês 3

Thalles Roberto

Cifra: Principal
exibições 260.725
Tom: G
[Intro] C7+  Bm7  Am7  G7+
        C7+  Bm7  Am7  G7+
        C7+  Bm7  Am7  G7+


E|-------------------------|------------------10----------------------|--------------|
B|-----8---10b12r10-10b12~-|-10b12r10-10p8-10----10~-8b10r8-7-8-7b8r7-|-8---8--------|
G|-7h9---9-----------------|------------------------------------------|-7h9-7-----7--|
D|-------------------------|------------------------------------------|-------7h9----|
A|-------------------------|------------------------------------------|--------------|
E|-------------------------|------------------------------------------|--------------|


E|-----------------------|------------------10----------------------|------------------|
B|-----8-10b12r10-10b12~-|-10b12r10-10p8-10----10~-8b10r8-7-8-7b8r7-|---8-8h10-----6/7-|
G|-7h9-------------------|------------------------------------------|-7--------7-9-----|
D|-----------------------|------------------------------------------|------------------|
A|-----------------------|------------------------------------------|------------------|
E|-----------------------|------------------------------------------|------------------|


E|-------------------|
B|-------------------|
G|-12----12----------|
D|-12h14-12----------|
A|----------14\12-10-|
E|-------------------|


 C7M       Bm7           Am7    G7+
Deus, meu Deus, inesplicavel te sentir
   C9     Bm7           Am7      C7+
Espirito Santo meu amigo innnnntimo
 C7M          Bm7            Am7                          G7M
Jesus ah meu Jesus, ah meu Jesus o que é que eu vou dizer de Ti?
           C7M              Bm7               Am7                              G7M
Que me justificou, e me santificou, me fez filho de Deus e herdeiro de tudo de Deus
        C7M                   Bm7                 Am7            D7/11   D7
Eu amo vocês três e vivo pra vocês me leva no seu vento me carrega, toooodo

 C7M       Bm7               Am7                                   G7M
Deus eu te amo, não te troco por nada nessa vida e cada dia eu te quero mais
 C7M       Bm7            Am7          G7M
Deus eu te amo, não te troco por nada

 C7M   Bm7    Am7                                    G7M
Todo dia o inimigo vem tentar me derrubar mais meu Jesus Ele nao deixa
               C7M             Bm7
Nele eu estou firme, firme na rocha,
         Am7                                                G7M
E não importa a proposta que eu receba a minha vida é dos tres, eu sou dos tres, eu sou dos tres.

0 comentários

    mostrar mais comentários

    Conseguiu tocar?

    46tocaram2ainda não

    Grave um vídeo tocando Eu Amo Vocês 3 e mande pra gente!

    00:00 / 00:00
    outros vídeos desta música
    repetirqualidadeautomática
    Outro vídeos desta música
      00:00 / 00:00
      automática
      OK