Cifra Club

Aprenda

Eu Amo Vocês 3

Thalles Roberto

Cifra: Principal (violão e guitarra)
tom: G
[Intro]

    C7+  Bm7   Am7    G7+
E|--7-----5-----3-----2--|
B|--0-----0-----0-----0--|
G|--9-----7-----5-----4--|
D|--9-----7-----5-----4--|
A|--x-----x-----x-----x--|
E|--8-----7-----5-----3--|

[Solo do inicio]

E|---------------------------------------------10--------------------------------------|
B|-----8---10b12r10-10b12~---10b12r10-10p8-10----10~-8b10r8-7-8-7b8r7---8---8----------|
G|-7h9---9--------------------------------------------------------------7h9-7-----7----|
D|----------------------------------------------------------------------------7h9------|
A|-------------------------------------------------------------------------------------|
E|-------------------------------------------------------------------------------------|

E|------------------------------------------10-------------------------------------------|
B|-----8-10b12r10-10b12~---10b12r10-10p8-10----10~-8b10r8-7-8-7b8r7-----8-8h10-----6/7---|
G|-7h9----------------------------------------------------------------7--------7-9-------|
D|---------------------------------------------------------------------------------------|
A|---------------------------------------------------------------------------------------|
E|---------------------------------------------------------------------------------------|

E|-------------------|
B|-------------------|
G|-12----12----------|
D|-12h14-12----------|
A|----------14\12-10-|
E|-------------------|

 C7M       Bm7           Am7    G7+
Deus, meu Deus, inexplicável te sentir
   C9     Bm7           Am7   C7+
Espirito Santo meu amigo intimo
 C7M          Bm7            Am7                          G7M
Jesus ah meu Jesus, ah meu Jesus o que é que eu vou dizer de Ti?
           C7M              Bm7               Am7                              G7M
Que me justificou, e me santificou, me fez filho de Deus e herdeiro de tudo de Deus
        C7M                   Bm7                 Am7            D7/11   D7
Eu amo vocês três e vivo pra vocês me leva no seu vento me carrega

 C7M       Bm7               Am7                                   G7M
Deus eu te amo, não te troco por nada nessa vida e cada dia eu te quero mais
 C7M       Bm7            Am7          G7M
Deus eu te amo, não te troco por nada

 C7M   Bm7    Am7                                    G7M
Todo dia o inimigo vem tentar me derrubar mais meu Jesus Ele não deixa
               C7M             Bm7
Nele eu estou firme, firme na rocha,
         Am7                                                G7M
E não importa a proposta que eu receba a minha vida é dos três, eu sou dos três, eu sou dos três.
Composição de Thalles Roberto
297.556 exibições
    • ½ Tom
    • A
    • Bb
    • B
    • C
    • Db
    • D
    • Eb
    • E
    • F
    • F#
    • G
    • Ab
  • Adicionar à lista

    0 comentários

    Ver todos os comentários
    00:00 / 00:00
    Outros vídeos desta música
    Repetir Qualidade Automático
    Outros vídeos desta música
    00:00 / 00:00
    Automático

    Cifra Club Pro

    Aproveite o Cifra Club com benefícios exclusivos e sem anúncios
    Cifra Club Pro
    Aproveite o Cifra Club com benefícios exclusivos e sem anúncios
    OK