Cifra Club

História Escrita Pelo Dedo de Deus

Thalles Roberto

Tab de baixo: Principal
Afinação padrão (E A D G)

Essa música não tem acompanhamento 
por contra-baixo originalmente, mas
fica muito bonita acompanhando um 
violão e uma voz bem afinada.
   
+ Notas da cifra:

Jesus pode escrever a sua história de novo
  C9                 D9   D11/F#    C9
 
+ Casas na tablatura:

G|---------------------
D|---------------------
A|-3--3/5-5/9~/3-------
E|---------------------

 
+ Somente no final acontece variação de uma nota o Fá (8)
 
 C9                 F9
Viver com Jesus é lindo

G|---------------------
D|---------------------
A|-3--3/-8-------------
E|---------------------


+ No refrão as notas ficam de SOL para RÉ e volta pra SOL.

G               Dm7           G
Junte suas forças e clame a Deus

G|---------------------|-----
D|---------------------|-----
A|-------5-5-5---------|----- <-- No 1º final "pelo de de Deus"
E|-3-3-3-------3-3-3---|33333 Retorna para "Junte suas forças...


G               Dm7           G
Junte suas forças e clame a Deus

G|---------------------
D|---------------------
A|-------5-5-5---------
E|-3-3-3-------3-3-3---

Escrita pelo dedo de Deus, quando 
fica repetindo essa estrofe quase 
terminando a música você vai tocar:

G|--------------
D|--------------
A|-------3-3h5--
E|--0-3h5-------
exibições 4.575
Composição: Thalles Roberto Colaboração e revisão:
  • Pedro Moura

0 comentários

mostrar mais comentários

Conseguiu tocar?

3 tocaram 0 ainda não

Grave um vídeo tocando História Escrita Pelo Dedo de Deus e mande pra gente!

00:00 / 00:00
outros vídeos desta música
repetir qualidade Automático
Outros vídeos desta música
00:00 / 00:00
Automático
OK