Cifra Club

Me Faz Viver

Thalles Roberto

Tab de baixo: Principal
E------------------------------------------------|
A---5-7/8-----------------5-7/8------------------|
D---------5h7-------------------5h7--------------|
G-------------5-7/8------------------5-7/8-------|

E---5-7/8-----------------5-7/8------------------|
A---------5h7-------------------5h7--------------|
D------------5-7/8-------------------5-7/8-------|
G------------------------------------------------|

E---3-5/6-----------------3-5/6------------------|
A---------3h5-------------------3h5--------------|
D------------3-5/6------------------3-5/6--------|
G------------------------------------------------|

E------------------------------------------------|
A---5-7/8-----------------5-7/8------------------|
D---------5h7-------------------5h7--------------|
G-------------5-7/8------------------5-7/8-------| 

E--------------|
A-6/8----------|
D----8-------8-|
G-----8h10-8---|

   Primeira Parte!
  
  Meu Senhor,Meu Rei...
  
E-----------5(3X)-4-5-333--------|
A--4(12x)------------------------|
D--------------------------5--6--|
G--------------------------------|
  
 Antes do Solo do Teclado!!!

E-----------------------|
A--5-5-5-5---7-----3\5--|
D---------------5-------|
G-----------------------|


E-5-5-5-5---7-------|
A--------------5----|
D-------------------|
G-------------------|


E-5-5-5-5---7------|
A---------------5--|
D------------------|
G------------------|


E-----------------|
A-5-5-5-5-6-------|
D-----------------|
G-----------------|

Repete mais uma vez essa Parte!

Me Faz Viver...

E------------------------------------------------|
A---5-7/8-----------------5-7/8------------------|
D---------5h7-------------------5h7--------------|
G-------------5-7/8------------------5-7/8-------|

E---5-7/8-----------------5-7/8------------------|
A---------5h7-------------------5h7--------------|
D------------5-7/8-------------------5-7/8-------|
G------------------------------------------------|

E---3-5/6-----------------3-5/6------------------|
A---------3h5-------------------3h5--------------|
D------------3-5/6------------------3-5/6--------|
G------------------------------------------------|

E------------------------------------------------|
A---5-7/8-----------------5-7/8------------------|
D---------5h7-------------------5h7--------------|
G-------------5-7/8------------------5-7/8-------| 

E--------------|
A-6/8----------|
D----8-------8-|
G-----8h10-8---|
  
No Final: Me Faz Viver...

E-----------3-------|
A--5-3-1-0-----5-6--|
D-------------------|
G-------------------|
exibições 19.538
Colaboração e revisão:
  • Eusébio Aguado
  • Carlos

0 comentários

mostrar mais comentários

Conseguiu tocar?

6 tocaram 0 ainda não

Grave um vídeo tocando Me Faz Viver e mande pra gente!

00:00 / 00:00
outros vídeos desta música
repetir qualidade Automático
Outros vídeos desta música
00:00 / 00:00
Automático
OK